  0
SECTION
  2
HEADER
  9
$ACADVER
  1
AC1009
  9
$DWGCODEPAGE
  3
ansi_932
  9
$INSBASE
 10
0.0
 20
0.0
 30
0.0
  9
$EXTMIN
 10
-899.9999999999999
 20
-1350.850112265625
 30
0.0
  9
$EXTMAX
 10
905.4004629629627
 20
1331.786335
 30
0.0
  9
$LIMMIN
 10
0.0
 20
0.0
  9
$LIMMAX
 10
0.0
 20
0.0
  9
$ORTHOMODE
 70
     0
  9
$REGENMODE
 70
     1
  9
$FILLMODE
 70
     1
  9
$QTEXTMODE
 70
     0
  9
$MIRRTEXT
 70
     1
  9
$DRAGMODE
 70
     2
  9
$LTSCALE
 40
50.8
  9
$OSMODE
 70
    37
  9
$ATTMODE
 70
     1
  9
$TEXTSIZE
 40
0.0
  9
$TRACEWID
 40
1.0
  9
$TEXTSTYLE
  7
STANDARD
  9
$CLAYER
  8
DATA
  9
$CELTYPE
  6
BYLAYER
  9
$CECOLOR
 62
   256
  9
$DIMSCALE
 40
1.0
  9
$DIMASZ
 40
0.18
  9
$DIMEXO
 40
0.0625
  9
$DIMDLI
 40
0.38
  9
$DIMRND
 40
0.0
  9
$DIMDLE
 40
0.0
  9
$DIMEXE
 40
0.18
  9
$DIMTP
 40
0.0
  9
$DIMTM
 40
0.0
  9
$DIMTXT
 40
0.18
  9
$DIMCEN
 40
0.09
  9
$DIMTSZ
 40
0.0
  9
$DIMTOL
 70
     0
  9
$DIMLIM
 70
     0
  9
$DIMTIH
 70
     1
  9
$DIMTOH
 70
     1
  9
$DIMSE1
 70
     0
  9
$DIMSE2
 70
     0
  9
$DIMTAD
 70
     0
  9
$DIMZIN
 70
     0
  9
$DIMBLK
  1

  9
$DIMASO
 70
     1
  9
$DIMSHO
 70
     1
  9
$DIMPOST
  1

  9
$DIMAPOST
  1

  9
$DIMALT
 70
     0
  9
$DIMALTD
 70
     2
  9
$DIMALTF
 40
25.4
  9
$DIMLFAC
 40
1.0
  9
$DIMTOFL
 70
     0
  9
$DIMTVP
 40
0.0
  9
$DIMTIX
 70
     0
  9
$DIMSOXD
 70
     0
  9
$DIMSAH
 70
     0
  9
$DIMBLK1
  1

  9
$DIMBLK2
  1

  9
$DIMSTYLE
  2
STANDARD
  9
$DIMCLRD
 70
     0
  9
$DIMCLRE
 70
     0
  9
$DIMCLRT
 70
     0
  9
$DIMTFAC
 40
1.0
  9
$DIMGAP
 40
0.09
  9
$LUNITS
 70
     2
  9
$LUPREC
 70
     2
  9
$SKETCHINC
 40
0.1
  9
$FILLETRAD
 40
0.0
  9
$AUNITS
 70
     0
  9
$AUPREC
 70
     0
  9
$MENU
  1
acad
  9
$ELEVATION
 40
0.0
  9
$PELEVATION
 40
0.0
  9
$THICKNESS
 40
0.0
  9
$LIMCHECK
 70
     0
  9
$CHAMFERA
 40
0.0
  9
$CHAMFERB
 40
0.0
  9
$SKPOLY
 70
     0
  9
$TDCREATE
 40
2459258.470187801
  9
$TDUPDATE
 40
2459258.470964884
  9
$TDINDWG
 40
2459258.095965648
  9
$TDUSRTIMER
 40
0.0007778472
  9
$USRTIMER
 70
     1
  9
$ANGBASE
 50
0.0
  9
$ANGDIR
 70
     0
  9
$PDMODE
 70
     1
  9
$PDSIZE
 40
-2.0
  9
$PLINEWID
 40
0.0
  9
$COORDS
 70
     1
  9
$SPLFRAME
 70
     0
  9
$SPLINETYPE
 70
     6
  9
$SPLINESEGS
 70
     8
  9
$ATTDIA
 70
     1
  9
$ATTREQ
 70
     1
  9
$HANDLING
 70
     1
  9
$HANDSEED
  5
3B4
  9
$SURFTAB1
 70
     6
  9
$SURFTAB2
 70
     6
  9
$SURFTYPE
 70
     6
  9
$SURFU
 70
     6
  9
$SURFV
 70
     6
  9
$UCSNAME
  2

  9
$UCSORG
 10
0.0
 20
0.0
 30
0.0
  9
$UCSXDIR
 10
1.0
 20
0.0
 30
0.0
  9
$UCSYDIR
 10
0.0
 20
1.0
 30
0.0
  9
$PUCSNAME
  2

  9
$PUCSORG
 10
0.0
 20
0.0
 30
0.0
  9
$PUCSXDIR
 10
1.0
 20
0.0
 30
0.0
  9
$PUCSYDIR
 10
0.0
 20
1.0
 30
0.0
  9
$USERI1
 70
     0
  9
$USERI2
 70
     0
  9
$USERI3
 70
     0
  9
$USERI4
 70
     0
  9
$USERI5
 70
     0
  9
$USERR1
 40
0.0
  9
$USERR2
 40
0.0
  9
$USERR3
 40
0.0
  9
$USERR4
 40
0.0
  9
$USERR5
 40
0.0
  9
$WORLDVIEW
 70
     1
  9
$SHADEDGE
 70
     3
  9
$SHADEDIF
 70
    70
  9
$TILEMODE
 70
     1
  9
$MAXACTVP
 70
    64
  9
$PLIMCHECK
 70
     0
  9
$PEXTMIN
 10
1.000000000000000E+20
 20
1.000000000000000E+20
 30
1.000000000000000E+20
  9
$PEXTMAX
 10
-1.000000000000000E+20
 20
-1.000000000000000E+20
 30
-1.000000000000000E+20
  9
$PLIMMIN
 10
0.0
 20
0.0
  9
$PLIMMAX
 10
12.0
 20
9.0
  9
$UNITMODE
 70
     0
  9
$VISRETAIN
 70
     0
  9
$PLINEGEN
 70
     1
  9
$PSLTSCALE
 70
     0
  0
ENDSEC
  0
SECTION
  2
TABLES
  0
TABLE
  2
VPORT
 70
     1
  0
VPORT
  2
*ACTIVE
 70
     0
 10
0.0
 20
0.0
 11
1.0
 21
1.0
 12
0.0
 22
-3.531815000000279
 13
0.0
 23
0.0
 14
1.0
 24
1.0
 15
0.0
 25
0.0
 16
0.0
 26
0.0
 36
1.0
 17
0.0
 27
0.0
 37
0.0
 40
2670.636300000001
 41
2.794721407624633
 42
50.0
 43
0.0
 44
0.0
 50
0.0
 51
0.0
 71
     0
 72
  2000
 73
     1
 74
     1
 75
     0
 76
     0
 77
     0
 78
     0
  0
ENDTAB
  0
TABLE
  2
LTYPE
 70
    11
  0
LTYPE
  2
CONTINUOUS
 70
     0
  3
Solid line
 72
    65
 73
     0
 40
0.0
  0
LTYPE
  2
STYLE_06
 70
     0
  3

 72
    65
 73
     4
 40
1.041641235351562
 49
0.625
 49
-0.208282470703125
 49
0.069427490234375
 49
-0.1389312744140625
  0
ENDTAB
  0
TABLE
  2
LAYER
 70
     5
  0
LAYER
  2
0
 70
     0
 62
     7
  6
CONTINUOUS
  0
LAYER
  2
HIBINO-BASE
 70
     0
 62
     7
  6
CONTINUOUS
  0
LAYER
  2
SPEC
 70
     0
 62
     7
  6
CONTINUOUS
  0
LAYER
  2
DIMNSIONS
 70
     0
 62
     7
  6
CONTINUOUS
  0
LAYER
  2
DATA
 70
     0
 62
     7
  6
CONTINUOUS
  0
ENDTAB
  0
TABLE
  2
STYLE
 70
     2
  0
STYLE
  2
STANDARD
 70
     0
 40
0.0
 41
1.0
 50
0.0
 71
     0
 42
0.0
  3
txt
  4
BIGFONT.SHX
  0
ENDTAB
  0
TABLE
  2
VIEW
 70
     0
  0
ENDTAB
  0
TABLE
  2
UCS
 70
     0
  0
ENDTAB
  0
TABLE
  2
APPID
 70
     3
  0
APPID
  2
ACAD
 70
     0
  0
APPID
  2
ACAD_MLEADERVER
 70
     0
  0
APPID
  2
ACADANNOPO
 70
     0
  0
ENDTAB
  0
TABLE
  2
DIMSTYLE
 70
     1
  0
DIMSTYLE
  2
STANDARD
 70
     0
  3

  4

  5

  6

  7

 40
1.0
 41
0.18
 42
0.0625
 43
0.38
 44
0.18
 45
0.0
 46
0.0
 47
0.0
 48
0.0
140
0.18
141
0.09
142
0.0
143
25.4
144
1.0
145
0.0
146
1.0
147
0.09
 71
     0
 72
     0
 73
     1
 74
     1
 75
     0
 76
     0
 77
     0
 78
     0
170
     0
171
     2
172
     0
173
     0
174
     0
175
     0
176
     0
177
     0
178
     0
  0
ENDTAB
  0
ENDSEC
  0
SECTION
  2
BLOCKS
  0
BLOCK
  8
DATA
  2
$MODEL_SPACE
 70
     0
 10
0.0
 20
0.0
 30
0.0
  3
$MODEL_SPACE
  1

  0
ENDBLK
  5
357
  8
DATA
  0
BLOCK
 67
     1
  8
DATA
  2
$PAPER_SPACE
 70
     0
 10
0.0
 20
0.0
 30
0.0
  3
$PAPER_SPACE
  1

  0
ENDBLK
  5
355
 67
     1
  8
DATA
  0
ENDSEC
  0
SECTION
  2
ENTITIES
  0
LINE
  5
2C
  8
HIBINO-BASE
  6
CONTINUOUS
 62
     7
 10
-899.9999999999999
 20
1331.786335
 30
0.0
 11
899.9999999999999
 21
1331.786335
 31
0.0
  0
LINE
  5
2D
  8
HIBINO-BASE
  6
CONTINUOUS
 62
     7
 10
899.9999999999999
 20
-1268.213665
 30
0.0
 11
-899.9999999999999
 21
-1268.213665
 31
0.0
  0
LINE
  5
2E
  8
HIBINO-BASE
  6
CONTINUOUS
 62
     7
 10
-899.9999999999999
 20
-1268.213665
 30
0.0
 11
-899.9999999999999
 21
1331.786335
 31
0.0
  0
LINE
  5
2F
  8
HIBINO-BASE
  6
CONTINUOUS
 62
     7
 10
899.9999999999999
 20
1331.786335
 30
0.0
 11
899.9999999999999
 21
-1268.213665
 31
0.0
  0
LINE
  5
30
  8
HIBINO-BASE
  6
CONTINUOUS
 62
     7
 10
0.0000000000000711
 20
-1043.213665
 30
0.0
 11
899.9999999999999
 21
-1043.213665
 31
0.0
  0
LINE
  5
31
  8
HIBINO-BASE
  6
CONTINUOUS
 62
     7
 10
0.0000000000000711
 20
-1268.213665
 30
0.0
 11
0.0000000000000711
 21
-1043.213665
 31
0.0
  0
TEXT
  5
32
  8
HIBINO-BASE
 62
     7
 10
9.000000000000128
 20
-1068.300598333333
 30
0.0
 40
16.28841145833333
  1
NOTE
 41
0.7
 11
9.000000000000128
 21
-1052.012186875
 31
0.0
 73
     3
  0
LINE
  5
33
  8
HIBINO-BASE
  6
CONTINUOUS
 62
     7
 10
350.0000000000002
 20
-1268.213665
 30
0.0
 11
350.0000000000002
 21
-1043.213665
 31
0.0
  0
TEXT
  5
34
  8
HIBINO-BASE
 62
     7
 10
359.0
 20
-1068.300598333333
 30
0.0
 40
16.28841145833333
  1
TITLE
 41
0.7
 11
359.0
 21
-1052.012186875
 31
0.0
 73
     3
  0
LINE
  5
35
  8
HIBINO-BASE
  6
CONTINUOUS
 62
     7
 10
0.0000000000000711
 20
-1168.213665
 30
0.0
 11
899.9999999999999
 21
-1168.213665
 31
0.0
  0
TEXT
  5
36
  8
HIBINO-BASE
 62
     7
 10
483.9999999999999
 20
-1192.737398333333
 30
0.0
 40
16.28841145833333
  1
DRAWN
 41
0.7
 11
483.9999999999999
 21
-1176.448986875
 31
0.0
 73
     3
  0
TEXT
  5
37
  8
HIBINO-BASE
 62
     7
 10
234.0
 20
-1192.737398333333
 30
0.0
 40
16.28841145833333
  1
DATE
 41
0.7
 11
234.0
 21
-1176.448986875
 31
0.0
 73
     3
  0
TEXT
  5
38
  8
HIBINO-BASE
 62
     7
 10
134.0
 20
-1192.737398333333
 30
0.0
 40
16.28841145833333
  1
SCALE
 41
0.7
 11
134.0
 21
-1176.448986875
 31
0.0
 73
     3
  0
TEXT
  5
39
  8
HIBINO-BASE
 62
     7
 10
359.0
 20
-1192.737398333333
 30
0.0
 40
16.28841145833333
  1
DESIGN
 41
0.7
 11
359.0
 21
-1176.448986875
 31
0.0
 73
     3
  0
TEXT
  5
3A
  8
HIBINO-BASE
 62
     7
 10
733.9999999999999
 20
-1192.737398333333
 30
0.0
 40
16.28841145833333
  1
DRAWING NO.
 41
0.7
 11
733.9999999999999
 21
-1176.448986875
 31
0.0
 73
     3
  0
TEXT
  5
3B
  8
HIBINO-BASE
 62
     7
 10
608.9999999999999
 20
-1192.737398333333
 30
0.0
 40
16.28841145833333
  1
CHECK
 41
0.7
 11
608.9999999999999
 21
-1176.448986875
 31
0.0
 73
     3
  0
LINE
  5
3C
  8
HIBINO-BASE
  6
CONTINUOUS
 62
     7
 10
143.7500000000001
 20
-1255.713665
 30
0.0
 11
181.2500000000002
 21
-1218.213665
 31
0.0
  0
TEXT
  5
3D
  8
HIBINO-BASE
 62
     7
 10
137.5000000000001
 20
-1229.303098333334
 30
0.0
 40
16.28841145833333
  1
1
 41
0.7
 11
137.5000000000001
 21
-1213.014686875
 31
0.0
 73
     3
  0
LINE
  5
3E
  8
HIBINO-BASE
  6
CONTINUOUS
 62
     7
 10
125.0000000000001
 20
-1268.213665
 30
0.0
 11
125.0000000000001
 21
-1168.213665
 31
0.0
  0
LINE
  5
3F
  8
HIBINO-BASE
  6
CONTINUOUS
 62
     7
 10
224.9999999999999
 20
-1268.213665
 30
0.0
 11
224.9999999999999
 21
-1168.213665
 31
0.0
  0
LINE
  5
40
  8
HIBINO-BASE
  6
CONTINUOUS
 62
     7
 10
474.9999999999999
 20
-1168.213665
 30
0.0
 11
474.9999999999999
 21
-1268.213665
 31
0.0
  0
LINE
  5
41
  8
HIBINO-BASE
  6
CONTINUOUS
 62
     7
 10
725.0000000000001
 20
-1168.213665
 30
0.0
 11
725.0000000000001
 21
-1268.213665
 31
0.0
  0
LINE
  5
42
  8
HIBINO-BASE
  6
CONTINUOUS
 62
     7
 10
599.9999999999999
 20
-1268.213665
 30
0.0
 11
599.9999999999999
 21
-1168.213665
 31
0.0
  0
TEXT
  5
43
  8
HIBINO-BASE
 62
     7
 10
233.5654000000002
 20
-1239.577198333333
 30
0.0
 40
16.28841145833333
  1
'21.02.
 41
0.7
 11
233.5654000000002
 21
-1223.288786875
 31
0.0
 73
     3
  0
TEXT
  5
44
  8
HIBINO-BASE
 62
     7
 10
175.0000000000001
 20
-1248.053098333334
 30
0.0
 40
16.28841145833333
  1
10
 41
0.7
 11
175.0000000000001
 21
-1231.764686875
 31
0.0
 73
     3
  0
TEXT
  5
45
  8
HIBINO-BASE
 62
     7
 10
490.0581001103462
 20
-1239.577198333333
 30
0.0
 40
16.28841145833333
  1
N.Sasaki
 41
0.7
 11
490.0581001103462
 21
-1223.288786875
 31
0.0
 73
     3
  0
TEXT
  5
46
  8
HIBINO-BASE
 62
     7
 10
38.83333333333361
 20
-1248.453665
 30
0.0
 40
32.57682291666666
  1
A4
 41
0.7
 11
38.83333333333361
 21
-1215.876842083333
 31
0.0
 73
     3
  0
TEXT
  5
47
  8
HIBINO-BASE
 62
     7
 10
9.583333333333357
 20
-1194.408215
 30
0.0
 40
16.28841145833333
  1
PAPER SIZE
 41
0.7
 11
9.583333333333357
 21
-1178.119803541667
 31
0.0
 73
     3
  0
TEXT
  5
48
  8
HIBINO-BASE
 62
     7
 10
-828.1599999999997
 20
-1332.300443
 30
0.0
 40
36.00044179687499
  1
Hibino Corporation
 41
0.7
 11
-828.1599999999997
 21
-1296.300001203125
 31
0.0
 73
     3
  0
TEXT
  5
49
  8
HIBINO-BASE
 62
     7
 10
500.6839000000001
 20
-1332.300443
 30
0.0
 40
36.00044179687499
  1
ヒビノ株式会社
 41
0.7
 11
500.6839000000001
 21
-1296.300001203125
 31
0.0
 73
     3
  0
LINE
  5
4A
  8
SPEC
  6
CONTINUOUS
 62
     7
 10
-824.9999999999998
 20
1231.786335
 30
0.0
 11
650.0000000000001
 21
1231.786335
 31
0.0
  0
LINE
  5
4B
  8
SPEC
  6
CONTINUOUS
 62
     7
 10
-824.9999999999998
 20
1194.286335
 30
0.0
 11
650.0000000000001
 21
1194.286335
 31
0.0
  0
LINE
  5
4C
  8
SPEC
  6
CONTINUOUS
 62
     7
 10
-824.9999999999998
 20
1231.786335
 30
0.0
 11
-824.9999999999998
 21
594.2863349999996
 31
0.0
  0
TEXT
  5
4D
  8
SPEC
 62
     7
 10
-812.4999999999998
 20
1245.719034999999
 30
0.0
 40
24.4326171875
  1
仕様
 41
0.7
 11
-812.4999999999998
 21
1270.151652187499
 31
0.0
 73
     3
  0
LINE
  5
4E
  8
SPEC
  6
CONTINUOUS
 62
     7
 10
-500.0
 20
1231.786335
 30
0.0
 11
-500.0
 21
594.2863349999996
 31
0.0
  0
LINE
  5
4F
  8
SPEC
  6
CONTINUOUS
 62
     7
 10
650.0000000000001
 20
1231.786335
 30
0.0
 11
650.0000000000001
 21
594.2863349999996
 31
0.0
  0
LINE
  5
50
  8
SPEC
  6
CONTINUOUS
 62
     7
 10
-824.9999999999998
 20
1119.286335
 30
0.0
 11
650.0000000000001
 21
1119.286335
 31
0.0
  0
TEXT
  5
51
  8
SPEC
 62
     7
 10
-491.0
 20
677.1655127777772
 30
0.0
 40
19.00314670138889
  1
362×256×184mm
 41
0.7
 11
-491.0
 21
696.1686594791661
 31
0.0
 73
     3
  0
LINE
  5
52
  8
SPEC
  6
CONTINUOUS
 62
     7
 10
-824.9999999999998
 20
1081.786335
 30
0.0
 11
650.0000000000001
 21
1081.786335
 31
0.0
  0
LINE
  5
53
  8
SPEC
  6
CONTINUOUS
 62
     7
 10
-824.9999999999998
 20
1044.286335
 30
0.0
 11
650.0000000000001
 21
1044.286335
 31
0.0
  0
LINE
  5
54
  8
SPEC
  6
CONTINUOUS
 62
     7
 10
-824.9999999999998
 20
1006.786335
 30
0.0
 11
650.0000000000001
 21
1006.786335
 31
0.0
  0
LINE
  5
55
  8
SPEC
  6
CONTINUOUS
 62
     7
 10
-824.9999999999998
 20
969.2863349999996
 30
0.0
 11
650.0000000000001
 21
969.2863349999996
 31
0.0
  0
LINE
  5
56
  8
SPEC
  6
CONTINUOUS
 62
     7
 10
-575.0
 20
931.7863349999996
 30
0.0
 11
650.0000000000001
 21
931.7863349999996
 31
0.0
  0
LINE
  5
57
  8
SPEC
  6
CONTINUOUS
 62
     7
 10
-824.9999999999998
 20
894.2863349999996
 30
0.0
 11
650.0000000000001
 21
894.2863349999996
 31
0.0
  0
LINE
  5
58
  8
SPEC
  6
CONTINUOUS
 62
     7
 10
-575.0
 20
856.7863349999996
 30
0.0
 11
650.0000000000001
 21
856.7863349999996
 31
0.0
  0
LINE
  5
59
  8
SPEC
  6
CONTINUOUS
 62
     7
 10
-824.9999999999998
 20
819.2863349999996
 30
0.0
 11
650.0000000000001
 21
819.2863349999996
 31
0.0
  0
LINE
  5
5A
  8
SPEC
  6
CONTINUOUS
 62
     7
 10
-824.9999999999998
 20
781.7863349999996
 30
0.0
 11
650.0000000000001
 21
781.7863349999996
 31
0.0
  0
LINE
  5
5B
  8
SPEC
  6
CONTINUOUS
 62
     7
 10
-824.9999999999998
 20
744.2863349999996
 30
0.0
 11
650.0000000000001
 21
744.2863349999996
 31
0.0
  0
TEXT
  5
5C
  8
SPEC
 62
     7
 10
-816.0
 20
1202.165512777777
 30
0.0
 40
19.00314670138889
  1
周波数レンジ(-10dB)
 41
0.7
 11
-816.0
 21
1221.168659479166
 31
0.0
 73
     3
  0
TEXT
  5
5D
  8
SPEC
 62
     7
 10
-491.0
 20
1202.165512777777
 30
0.0
 40
19.00314670138889
  1
50Hz～20kHz(半自由空間、壁上)
 41
0.7
 11
-491.0
 21
1221.168659479166
 31
0.0
 73
     3
  0
TEXT
  5
5E
  8
SPEC
 62
     7
 10
-816.0
 20
1164.665512777777
 30
0.0
 40
19.00314670138889
  1
カバレージ角(水平×垂直)
 41
0.7
 11
-816.0
 21
1183.668659479166
 31
0.0
 73
     3
  0
TEXT
  5
5F
  8
SPEC
 62
     7
 10
-491.0
 20
1164.665512777777
 30
0.0
 40
19.00314670138889
  1
180°×160°(1～2kHz)
 41
0.7
 11
-491.0
 21
1183.668659479166
 31
0.0
 73
     3
  0
TEXT
  5
60
  8
SPEC
 62
     7
 10
-491.0
 20
1127.165512777777
 30
0.0
 40
19.00314670138889
  1
160°×150°(1～16kHz平均)
 41
0.7
 11
-491.0
 21
1146.168659479166
 31
0.0
 73
     3
  0
TEXT
  5
61
  8
SPEC
 62
     7
 10
-816.0
 20
1089.665512777777
 30
0.0
 40
19.00314670138889
  1
許容入力※
 41
0.7
 11
-816.0
 21
1108.668659479166
 31
0.0
 73
     3
  0
TEXT
  5
62
  8
SPEC
 62
     7
 10
-491.0
 20
1089.665512777777
 30
0.0
 40
19.00314670138889
  1
75W
 41
0.7
 11
-491.0
 21
1108.668659479166
 31
0.0
 73
     3
  0
TEXT
  5
63
  8
SPEC
 62
     7
 10
-816.0
 20
1052.165512777777
 30
0.0
 40
19.00314670138889
  1
感度(80Hz～20kHz平均)
 41
0.7
 11
-816.0
 21
1071.168659479166
 31
0.0
 73
     3
  0
TEXT
  5
64
  8
SPEC
 62
     7
 10
-491.0
 20
1052.165512777777
 30
0.0
 40
19.00314670138889
  1
88dB SPL
 41
0.7
 11
-491.0
 21
1071.168659479166
 31
0.0
 73
     3
  0
TEXT
  5
65
  8
SPEC
 62
     7
 10
-816.0
 20
1014.665512777777
 30
0.0
 40
19.00314670138889
  1
最大音圧レベル
 41
0.7
 11
-816.0
 21
1033.668659479166
 31
0.0
 73
     3
  0
TEXT
  5
66
  8
SPEC
 62
     7
 10
-491.0
 20
1014.665512777777
 30
0.0
 40
19.00314670138889
  1
108dB SPL
 41
0.7
 11
-491.0
 21
1033.668659479166
 31
0.0
 73
     3
  0
TEXT
  5
67
  8
SPEC
 62
     7
 10
-816.0
 20
977.1655127777772
 30
0.0
 40
19.00314670138889
  1
公称インピーダンス
 41
0.7
 11
-816.0
 21
996.1686594791661
 31
0.0
 73
     3
  0
TEXT
  5
68
  8
SPEC
 62
     7
 10
-491.0
 20
977.1655127777772
 30
0.0
 40
19.00314670138889
  1
8Ω
 41
0.7
 11
-491.0
 21
996.1686594791661
 31
0.0
 73
     3
  0
TEXT
  5
69
  8
SPEC
 62
     7
 10
-816.0
 20
939.6655127777772
 30
0.0
 40
19.00314670138889
  1
トランス・タップ
 41
0.7
 11
-816.0
 21
958.6686594791661
 31
0.0
 73
     3
  0
TEXT
  5
6A
  8
SPEC
 62
     7
 10
-566.0
 20
939.6655127777772
 30
0.0
 40
19.00314670138889
  1
100V
 41
0.7
 11
-566.0
 21
958.6686594791661
 31
0.0
 73
     3
  0
TEXT
  5
6B
  8
SPEC
 62
     7
 10
-491.0
 20
939.6655127777772
 30
0.0
 40
19.00314670138889
  1
60W、30W、15W
 41
0.7
 11
-491.0
 21
958.6686594791661
 31
0.0
 73
     3
  0
TEXT
  5
6C
  8
SPEC
 62
     7
 10
-566.0
 20
902.1655127777772
 30
0.0
 40
19.00314670138889
  1
70V
 41
0.7
 11
-566.0
 21
921.1686594791661
 31
0.0
 73
     3
  0
TEXT
  5
6D
  8
SPEC
 62
     7
 10
-491.0
 20
902.1655127777772
 30
0.0
 40
19.00314670138889
  1
60W、30W、15W、7.5W
 41
0.7
 11
-491.0
 21
921.1686594791661
 31
0.0
 73
     3
  0
LINE
  5
6E
  8
SPEC
  6
CONTINUOUS
 62
     7
 10
-575.0
 20
969.2863349999996
 30
0.0
 11
-575.0
 21
819.2863349999996
 31
0.0
  0
TEXT
  5
6F
  8
SPEC
 62
     7
 10
-816.0
 20
864.6655127777772
 30
0.0
 40
19.00314670138889
  1
ドライバー構成
 41
0.7
 11
-816.0
 21
883.6686594791661
 31
0.0
 73
     3
  0
TEXT
  5
70
  8
SPEC
 62
     7
 10
-566.0
 20
864.6655127777772
 30
0.0
 40
19.00314670138889
  1
LF
 41
0.7
 11
-566.0
 21
883.6686594791661
 31
0.0
 73
     3
  0
TEXT
  5
71
  8
SPEC
 62
     7
 10
-491.0
 20
864.6655127777772
 30
0.0
 40
19.00314670138889
  1
5.25インチ(133mm)
 41
0.7
 11
-491.0
 21
883.6686594791661
 31
0.0
 73
     3
  0
TEXT
  5
72
  8
SPEC
 62
     7
 10
-566.0
 20
827.1655127777772
 30
0.0
 40
19.00314670138889
  1
HF
 41
0.7
 11
-566.0
 21
846.1686594791661
 31
0.0
 73
     3
  0
TEXT
  5
73
  8
SPEC
 62
     7
 10
-491.0
 20
827.1655127777772
 30
0.0
 40
19.00314670138889
  1
0.75インチ(19mm)×2
 41
0.7
 11
-491.0
 21
846.1686594791661
 31
0.0
 73
     3
  0
TEXT
  5
74
  8
SPEC
 62
     7
 10
-816.0
 20
789.6655127777772
 30
0.0
 40
19.00314670138889
  1
クロスオーバー周波数
 41
0.7
 11
-816.0
 21
808.6686594791661
 31
0.0
 73
     3
  0
TEXT
  5
75
  8
SPEC
 62
     7
 10
-491.0
 20
789.6655127777772
 30
0.0
 40
19.00314670138889
  1
1.6kHz
 41
0.7
 11
-491.0
 21
808.6686594791661
 31
0.0
 73
     3
  0
TEXT
  5
76
  8
SPEC
 62
     7
 10
-816.0
 20
752.1655127777772
 30
0.0
 40
19.00314670138889
  1
色
 41
0.7
 11
-816.0
 21
771.1686594791661
 31
0.0
 73
     3
  0
TEXT
  5
77
  8
SPEC
 62
     7
 10
-491.0
 20
752.1655127777772
 30
0.0
 40
19.00314670138889
  1
黒または白(-WH)
 41
0.7
 11
-491.0
 21
771.1686594791661
 31
0.0
 73
     3
  0
LINE
  5
78
  8
SPEC
  6
CONTINUOUS
 62
     7
 10
-824.9999999999998
 20
706.7863349999996
 30
0.0
 11
650.0000000000001
 21
706.7863349999996
 31
0.0
  0
LINE
  5
79
  8
SPEC
  6
CONTINUOUS
 62
     7
 10
-824.9999999999998
 20
669.2863349999996
 30
0.0
 11
650.0000000000001
 21
669.2863349999996
 31
0.0
  0
LINE
  5
7A
  8
SPEC
  6
CONTINUOUS
 62
     7
 10
-824.9999999999998
 20
631.7863349999996
 30
0.0
 11
650.0000000000001
 21
631.7863349999996
 31
0.0
  0
TEXT
  5
7B
  8
SPEC
 62
     7
 10
-816.0
 20
602.1655127777772
 30
0.0
 40
19.00314670138889
  1
付属品
 41
0.7
 11
-816.0
 21
621.1686594791661
 31
0.0
 73
     3
  0
LINE
  5
7C
  8
SPEC
  6
CONTINUOUS
 62
     7
 10
-824.9999999999998
 20
594.2863349999996
 30
0.0
 11
650.0000000000001
 21
594.2863349999996
 31
0.0
  0
TEXT
  5
7D
  8
SPEC
 62
     7
 10
-816.0
 20
714.6655127777772
 30
0.0
 40
19.00314670138889
  1
端子(入力/ループスルー)
 41
0.7
 11
-816.0
 21
733.6686594791661
 31
0.0
 73
     3
  0
TEXT
  5
7E
  8
SPEC
 62
     7
 10
-491.0
 20
714.6655127777772
 30
0.0
 40
19.00314670138889
  1
ユーロブロック
 41
0.7
 11
-491.0
 21
733.6686594791661
 31
0.0
 73
     3
  0
TEXT
  5
7F
  8
SPEC
 62
     7
 10
-816.0
 20
677.1655127777772
 30
0.0
 40
19.00314670138889
  1
寸法(W×H×D)
 41
0.7
 11
-816.0
 21
696.1686594791661
 31
0.0
 73
     3
  0
TEXT
  5
80
  8
SPEC
 62
     7
 10
-816.0
 20
639.6655127777772
 30
0.0
 40
19.00314670138889
  1
質量
 41
0.7
 11
-816.0
 21
658.6686594791661
 31
0.0
 73
     3
  0
TEXT
  5
81
  8
SPEC
 62
     7
 10
-491.0
 20
639.6655127777772
 30
0.0
 40
19.00314670138889
  1
3.8kg
 41
0.7
 11
-491.0
 21
658.6686594791661
 31
0.0
 73
     3
  0
TEXT
  5
82
  8
SPEC
 62
     7
 10
-812.5
 20
566.1099999999999
 30
0.0
 40
19.00314670138889
  1
※IEC ピンクノイズ、クレストファクター6dB、100時間
 41
0.7
 11
-812.5
 21
585.1131467013888
 31
0.0
 73
     3
  0
TEXT
  5
83
  8
SPEC
 62
     7
 10
-491.0
 20
602.1655127777773
 30
0.0
 40
19.00314670138889
  1
壁取付金具、金具固定ねじ×4、4ピン・ユーロブロックコネクター、和文取扱説明書
 41
0.7
 11
-491.0
 21
621.1686594791662
 31
0.0
 73
     3
  0
TEXT
  5
84
  8
DIMNSIONS
 62
     7
 10
-199.9999999999999
 20
-1145.518765
 30
0.0
 40
24.4326171875
  1
(単位：mm)
 41
0.7
 11
-199.9999999999999
 21
-1121.0861478125
 31
0.0
 73
     3
  0
LINE
  5
85
  8
DIMNSIONS
  6
CONTINUOUS
 62
     7
 10
553.0000000000001
 20
113.75
 30
0.0
 11
608.0000000000001
 21
113.75
 31
0.0
  0
LINE
  5
86
  8
DIMNSIONS
  6
CONTINUOUS
 62
     7
 10
553.0000000000001
 20
27.75
 30
0.0
 11
608.0000000000001
 21
27.75
 31
0.0
  0
LINE
  5
87
  8
DIMNSIONS
  6
CONTINUOUS
 62
     7
 10
600.0000000000001
 20
27.75
 30
0.0
 11
600.0000000000001
 21
-106.4444444444445
 31
0.0
  0
LINE
  5
88
  8
DIMNSIONS
  6
CONTINUOUS
 62
     7
 10
600.0000000000001
 20
113.75
 30
0.0
 11
600.0000000000001
 21
27.75
 31
0.0
  0
LINE
  5
89
  8
DIMNSIONS
  6
CONTINUOUS
 62
     7
 10
600.0000000000001
 20
113.75
 30
0.0
 11
604.0210695703996
 21
98.7431640625
 31
0.0
  0
LINE
  5
8A
  8
DIMNSIONS
  6
CONTINUOUS
 62
     7
 10
600.0000000000001
 20
113.75
 30
0.0
 11
595.9789304296006
 21
98.7431640625
 31
0.0
  0
LINE
  5
8B
  8
DIMNSIONS
  6
CONTINUOUS
 62
     7
 10
600.0000000000001
 20
27.75
 30
0.0
 11
595.9789304296006
 21
42.7568359375
 31
0.0
  0
LINE
  5
8C
  8
DIMNSIONS
  6
CONTINUOUS
 62
     7
 10
600.0000000000001
 20
27.75
 30
0.0
 11
604.0210695703996
 21
42.7568359375
 31
0.0
  0
TEXT
  5
8D
  8
DIMNSIONS
 62
     7
 10
593.0488888888891
 20
-106.4444444444445
 30
0.0
 40
21.71788194444445
  1
86.0
 50
90.0
 41
0.7
 11
571.3310069444447
 21
-106.4444444444445
 31
0.0
 73
     3
  0
LINE
  5
8E
  8
DIMNSIONS
  6
CONTINUOUS
 62
     7
 10
510.0000000000001
 20
160.75
 30
0.0
 11
708.0000000000001
 21
160.75
 31
0.0
  0
LINE
  5
8F
  8
DIMNSIONS
  6
CONTINUOUS
 62
     7
 10
510.0000000000001
 20
-19.25
 30
0.0
 11
708.0000000000001
 21
-19.25
 31
0.0
  0
LINE
  5
90
  8
DIMNSIONS
  6
CONTINUOUS
 62
     7
 10
700.0000000000001
 20
160.75
 30
0.0
 11
700.0000000000001
 21
-19.25
 31
0.0
  0
LINE
  5
91
  8
DIMNSIONS
  6
CONTINUOUS
 62
     7
 10
700.0000000000001
 20
160.75
 30
0.0
 11
704.0210695703996
 21
145.7431640625
 31
0.0
  0
LINE
  5
92
  8
DIMNSIONS
  6
CONTINUOUS
 62
     7
 10
700.0000000000001
 20
160.75
 30
0.0
 11
695.9789304296006
 21
145.7431640625
 31
0.0
  0
LINE
  5
93
  8
DIMNSIONS
  6
CONTINUOUS
 62
     7
 10
700.0000000000001
 20
-19.25
 30
0.0
 11
695.9789304296006
 21
-4.2431640625
 31
0.0
  0
LINE
  5
94
  8
DIMNSIONS
  6
CONTINUOUS
 62
     7
 10
700.0000000000001
 20
-19.25
 30
0.0
 11
704.0210695703996
 21
-4.2431640625
 31
0.0
  0
TEXT
  5
95
  8
DIMNSIONS
 62
     7
 10
693.0488888888891
 20
42.52777777777776
 30
0.0
 40
21.71788194444445
  1
180
 50
90.0
 41
0.7
 11
671.3310069444447
 21
42.52777777777776
 31
0.0
 73
     3
  0
LINE
  5
96
  8
DIMNSIONS
  6
CONTINUOUS
 62
     7
 10
-731.003150345326
 20
-290.6974928635617
 30
0.0
 11
-731.003150345326
 21
-265.0
 31
0.0
  0
LINE
  5
97
  8
DIMNSIONS
  6
CONTINUOUS
 62
     7
 10
-369.0
 20
-290.7363626906549
 30
0.0
 11
-369.0
 21
-265.0
 31
0.0
  0
LINE
  5
98
  8
DIMNSIONS
  6
CONTINUOUS
 62
     7
 10
-731.003150345326
 20
-275.0
 30
0.0
 11
-369.0
 21
-275.0
 31
0.0
  0
LINE
  5
99
  8
DIMNSIONS
  6
CONTINUOUS
 62
     7
 10
-731.003150345326
 20
-275.0
 30
0.0
 11
-705.9969247593885
 21
-268.2996020484975
 31
0.0
  0
LINE
  5
9A
  8
DIMNSIONS
  6
CONTINUOUS
 62
     7
 10
-731.003150345326
 20
-275.0
 30
0.0
 11
-705.9969247593885
 21
-281.7003979515025
 31
0.0
  0
LINE
  5
9B
  8
DIMNSIONS
  6
CONTINUOUS
 62
     7
 10
-369.0
 20
-275.0
 30
0.0
 11
-394.0062255859375
 21
-281.7003979515025
 31
0.0
  0
LINE
  5
9C
  8
DIMNSIONS
  6
CONTINUOUS
 62
     7
 10
-369.0
 20
-275.0
 30
0.0
 11
-394.0062255859375
 21
-268.2996020484975
 31
0.0
  0
TEXT
  5
9D
  8
DIMNSIONS
 62
     7
 10
-576.4599085059964
 20
-265.0611111111111
 30
0.0
 40
27.14735243055556
  1
362
 41
0.7
 11
-576.4599085059964
 21
-237.9137586805556
 31
0.0
 73
     3
  0
LINE
  5
9E
  8
DIMNSIONS
  6
CONTINUOUS
 62
     7
 10
-570.0
 20
-294.0
 30
0.0
 11
-760.0
 21
-294.0
 31
0.0
  0
LINE
  5
9F
  8
DIMNSIONS
  6
CONTINUOUS
 62
     7
 10
-662.852051800065
 20
-550.0
 30
0.0
 11
-760.0
 21
-550.0
 31
0.0
  0
LINE
  5
A0
  8
DIMNSIONS
  6
CONTINUOUS
 62
     7
 10
-750.0
 20
-294.0
 30
0.0
 11
-750.0
 21
-550.0
 31
0.0
  0
LINE
  5
A1
  8
DIMNSIONS
  6
CONTINUOUS
 62
     7
 10
-750.0
 20
-294.0
 30
0.0
 11
-743.2996020484976
 21
-319.0062255859375
 31
0.0
  0
LINE
  5
A2
  8
DIMNSIONS
  6
CONTINUOUS
 62
     7
 10
-750.0
 20
-294.0
 30
0.0
 11
-756.7003979515024
 21
-319.0062255859375
 31
0.0
  0
LINE
  5
A3
  8
DIMNSIONS
  6
CONTINUOUS
 62
     7
 10
-750.0
 20
-550.0
 30
0.0
 11
-756.7003979515024
 21
-524.9937744140625
 31
0.0
  0
LINE
  5
A4
  8
DIMNSIONS
  6
CONTINUOUS
 62
     7
 10
-750.0
 20
-550.0
 30
0.0
 11
-743.2996020484976
 21
-524.9937744140625
 31
0.0
  0
TEXT
  5
A5
  8
DIMNSIONS
 62
     7
 10
-759.938888888889
 20
-448.4583333333334
 30
0.0
 40
27.14735243055556
  1
256
 50
90.0
 41
0.7
 11
-787.0862413194445
 21
-448.4583333333334
 31
0.0
 73
     3
  0
LINE
  5
A6
  8
DIMNSIONS
  6
CONTINUOUS
 62
     7
 10
-635.5
 20
-41.0
 30
0.0
 11
-760.0
 21
-41.0
 31
0.0
  0
LINE
  5
A7
  8
DIMNSIONS
  6
CONTINUOUS
 62
     7
 10
-570.0
 20
-225.0
 30
0.0
 11
-760.0
 21
-225.0
 31
0.0
  0
LINE
  5
A8
  8
DIMNSIONS
  6
CONTINUOUS
 62
     7
 10
-750.0
 20
-41.0
 30
0.0
 11
-750.0
 21
-225.0
 31
0.0
  0
LINE
  5
A9
  8
DIMNSIONS
  6
CONTINUOUS
 62
     7
 10
-750.0
 20
-41.0
 30
0.0
 11
-743.2996020484976
 21
-66.0062255859375
 31
0.0
  0
LINE
  5
AA
  8
DIMNSIONS
  6
CONTINUOUS
 62
     7
 10
-750.0
 20
-41.0
 30
0.0
 11
-756.7003979515024
 21
-66.0062255859375
 31
0.0
  0
LINE
  5
AB
  8
DIMNSIONS
  6
CONTINUOUS
 62
     7
 10
-750.0
 20
-225.0
 30
0.0
 11
-756.7003979515024
 21
-199.9937744140625
 31
0.0
  0
LINE
  5
AC
  8
DIMNSIONS
  6
CONTINUOUS
 62
     7
 10
-750.0
 20
-225.0
 30
0.0
 11
-743.2996020484976
 21
-199.9937744140625
 31
0.0
  0
TEXT
  5
AD
  8
DIMNSIONS
 62
     7
 10
-759.938888888889
 20
-159.4583333333333
 30
0.0
 40
27.14735243055556
  1
184
 50
90.0
 41
0.7
 11
-787.0862413194445
 21
-159.4583333333333
 31
0.0
 73
     3
  0
LINE
  5
AE
  8
DIMNSIONS
  6
CONTINUOUS
 62
     7
 10
445.0
 20
14.24616539198655
 30
0.0
 11
445.0
 21
-208.0
 31
0.0
  0
LINE
  5
AF
  8
DIMNSIONS
  6
CONTINUOUS
 62
     7
 10
555.0
 20
12.30020806325547
 30
0.0
 11
555.0
 21
-208.0
 31
0.0
  0
LINE
  5
B0
  8
DIMNSIONS
  6
CONTINUOUS
 62
     7
 10
445.0
 20
-200.0
 30
0.0
 11
555.0
 21
-200.0
 31
0.0
  0
LINE
  5
B1
  8
DIMNSIONS
  6
CONTINUOUS
 62
     7
 10
445.0
 20
-200.0
 30
0.0
 11
460.0068359375
 21
-195.9789304296005
 31
0.0
  0
LINE
  5
B2
  8
DIMNSIONS
  6
CONTINUOUS
 62
     7
 10
445.0
 20
-200.0
 30
0.0
 11
460.0068359375
 21
-204.0210695703995
 31
0.0
  0
LINE
  5
B3
  8
DIMNSIONS
  6
CONTINUOUS
 62
     7
 10
555.0
 20
-200.0
 30
0.0
 11
539.9931640625
 21
-204.0210695703995
 31
0.0
  0
LINE
  5
B4
  8
DIMNSIONS
  6
CONTINUOUS
 62
     7
 10
555.0
 20
-200.0
 30
0.0
 11
539.9931640625
 21
-195.9789304296005
 31
0.0
  0
TEXT
  5
B5
  8
DIMNSIONS
 62
     7
 10
478.8333333333333
 20
-193.0488888888889
 30
0.0
 40
21.71788194444445
  1
110
 41
0.7
 11
478.8333333333333
 21
-171.3310069444444
 31
0.0
 73
     3
  0
LINE
  5
B6
  8
DIMNSIONS
  6
CONTINUOUS
 62
     7
 10
451.7500000000001
 20
191.5
 30
0.0
 11
392.0
 21
191.5
 31
0.0
  0
LINE
  5
B7
  8
DIMNSIONS
  6
CONTINUOUS
 62
     7
 10
451.7500000000001
 20
-50.0
 30
0.0
 11
392.0
 21
-50.0
 31
0.0
  0
LINE
  5
B8
  8
DIMNSIONS
  6
CONTINUOUS
 62
     7
 10
400.0
 20
191.5
 30
0.0
 11
400.0
 21
-50.0
 31
0.0
  0
LINE
  5
B9
  8
DIMNSIONS
  6
CONTINUOUS
 62
     7
 10
400.0
 20
191.5
 30
0.0
 11
404.0210695703994
 21
176.4931640625
 31
0.0
  0
LINE
  5
BA
  8
DIMNSIONS
  6
CONTINUOUS
 62
     7
 10
400.0
 20
191.5
 30
0.0
 11
395.9789304296005
 21
176.4931640625
 31
0.0
  0
LINE
  5
BB
  8
DIMNSIONS
  6
CONTINUOUS
 62
     7
 10
400.0
 20
-50.0
 30
0.0
 11
395.9789304296005
 21
-34.9931640625
 31
0.0
  0
LINE
  5
BC
  8
DIMNSIONS
  6
CONTINUOUS
 62
     7
 10
400.0
 20
-50.0
 30
0.0
 11
404.0210695703994
 21
-34.9931640625
 31
0.0
  0
TEXT
  5
BD
  8
DIMNSIONS
 62
     7
 10
393.0488888888889
 20
49.58333333333333
 30
0.0
 40
21.71788194444445
  1
242
 50
90.0
 41
0.7
 11
371.3310069444444
 21
49.58333333333333
 31
0.0
 73
     3
  0
LINE
  5
BE
  8
DIMNSIONS
  6
CONTINUOUS
 62
     7
 10
457.0000000000001
 20
17.75
 30
0.0
 11
457.0000000000001
 21
-108.0
 31
0.0
  0
LINE
  5
BF
  8
DIMNSIONS
  6
CONTINUOUS
 62
     7
 10
543.0000000000001
 20
17.75
 30
0.0
 11
543.0000000000001
 21
-108.0
 31
0.0
  0
LINE
  5
C0
  8
DIMNSIONS
  6
CONTINUOUS
 62
     7
 10
457.0000000000001
 20
-100.0
 30
0.0
 11
343.5555555555557
 21
-100.0
 31
0.0
  0
LINE
  5
C1
  8
DIMNSIONS
  6
CONTINUOUS
 62
     7
 10
457.0000000000001
 20
-100.0
 30
0.0
 11
543.0000000000001
 21
-100.0
 31
0.0
  0
LINE
  5
C2
  8
DIMNSIONS
  6
CONTINUOUS
 62
     7
 10
457.0000000000001
 20
-100.0
 30
0.0
 11
472.0068359375001
 21
-95.97893042960052
 31
0.0
  0
LINE
  5
C3
  8
DIMNSIONS
  6
CONTINUOUS
 62
     7
 10
457.0000000000001
 20
-100.0
 30
0.0
 11
472.0068359375001
 21
-104.0210695703995
 31
0.0
  0
LINE
  5
C4
  8
DIMNSIONS
  6
CONTINUOUS
 62
     7
 10
543.0000000000001
 20
-100.0
 30
0.0
 11
527.9931640625001
 21
-104.0210695703995
 31
0.0
  0
LINE
  5
C5
  8
DIMNSIONS
  6
CONTINUOUS
 62
     7
 10
543.0000000000001
 20
-100.0
 30
0.0
 11
527.9931640625001
 21
-95.97893042960052
 31
0.0
  0
TEXT
  5
C6
  8
DIMNSIONS
 62
     7
 10
343.5555555555557
 20
-93.04888888888888
 30
0.0
 40
21.71788194444445
  1
86.0
 41
0.7
 11
343.5555555555557
 21
-71.33100694444444
 31
0.0
 73
     3
  0
LINE
  5
C7
  8
DIMNSIONS
  6
CONTINUOUS
 62
     7
 10
460.0500000000001
 20
250.0
 30
0.0
 11
392.0
 21
250.0
 31
0.0
  0
LINE
  5
C8
  8
DIMNSIONS
  6
CONTINUOUS
 62
     7
 10
434.9500000000002
 20
316.3
 30
0.0
 11
392.0
 21
316.3
 31
0.0
  0
LINE
  5
C9
  8
DIMNSIONS
  6
CONTINUOUS
 62
     7
 10
400.0
 20
250.0
 30
0.0
 11
400.0
 21
316.3
 31
0.0
  0
LINE
  5
CA
  8
DIMNSIONS
  6
CONTINUOUS
 62
     7
 10
400.0
 20
250.0
 30
0.0
 11
395.9789304296005
 21
265.0068359375
 31
0.0
  0
LINE
  5
CB
  8
DIMNSIONS
  6
CONTINUOUS
 62
     7
 10
400.0
 20
250.0
 30
0.0
 11
404.0210695703994
 21
265.0068359375
 31
0.0
  0
LINE
  5
CC
  8
DIMNSIONS
  6
CONTINUOUS
 62
     7
 10
400.0
 20
316.3
 30
0.0
 11
404.0210695703994
 21
301.2931640625
 31
0.0
  0
LINE
  5
CD
  8
DIMNSIONS
  6
CONTINUOUS
 62
     7
 10
400.0
 20
316.3
 30
0.0
 11
395.9789304296005
 21
301.2931640625
 31
0.0
  0
TEXT
  5
CE
  8
DIMNSIONS
 62
     7
 10
393.0488888888889
 20
254.9277777777778
 30
0.0
 40
21.71788194444445
  1
66.3
 50
90.0
 41
0.7
 11
371.3310069444444
 21
254.9277777777778
 31
0.0
 73
     3
  0
TEXT
  5
CF
  8
DIMNSIONS
 62
     7
 10
50.0
 20
-1012.7
 30
0.0
 40
27.14735243055556
  1
※ センター振り分け
 41
0.7
 11
50.0
 21
-985.5526475694444
 31
0.0
 73
     3
  0
LINE
  5
D0
  8
DIMNSIONS
  6
CONTINUOUS
 62
     7
 10
470.0000000000001
 20
248.3
 30
0.0
 11
470.0000000000001
 21
208.3
 31
0.0
  0
LINE
  5
D1
  8
DIMNSIONS
  6
CONTINUOUS
 62
     7
 10
530.0000000000001
 20
248.3
 30
0.0
 11
530.0000000000001
 21
208.3
 31
0.0
  0
LINE
  5
D2
  8
DIMNSIONS
  6
CONTINUOUS
 62
     7
 10
530.0000000000001
 20
216.3
 30
0.0
 11
606.4444444444446
 21
216.3
 31
0.0
  0
LINE
  5
D3
  8
DIMNSIONS
  6
CONTINUOUS
 62
     7
 10
470.0000000000001
 20
216.3
 30
0.0
 11
530.0000000000001
 21
216.3
 31
0.0
  0
LINE
  5
D4
  8
DIMNSIONS
  6
CONTINUOUS
 62
     7
 10
470.0000000000001
 20
216.3
 30
0.0
 11
485.0068359375001
 21
220.3210695703995
 31
0.0
  0
LINE
  5
D5
  8
DIMNSIONS
  6
CONTINUOUS
 62
     7
 10
470.0000000000001
 20
216.3
 30
0.0
 11
485.0068359375001
 21
212.2789304296005
 31
0.0
  0
LINE
  5
D6
  8
DIMNSIONS
  6
CONTINUOUS
 62
     7
 10
530.0000000000001
 20
216.3
 30
0.0
 11
514.9931640625001
 21
212.2789304296005
 31
0.0
  0
LINE
  5
D7
  8
DIMNSIONS
  6
CONTINUOUS
 62
     7
 10
530.0000000000001
 20
216.3
 30
0.0
 11
514.9931640625001
 21
220.3210695703995
 31
0.0
  0
TEXT
  5
D8
  8
DIMNSIONS
 62
     7
 10
550.0000000000001
 20
223.2511111111111
 30
0.0
 40
21.71788194444445
  1
60.0
 41
0.7
 11
550.0000000000001
 21
244.9689930555556
 31
0.0
 73
     3
  0
TEXT
  5
D9
  8
DIMNSIONS
 62
     7
 10
612.5839720775464
 20
238.0206488715278
 30
0.0
 40
19.00314670138889
  1
※
 41
0.7
 72
     1
 11
618.7916666666667
 21
247.5222222222222
 31
0.0
 73
     2
  0
LINE
  5
DA
  8
DIMNSIONS
  6
CONTINUOUS
 62
     7
 10
510.0000000000001
 20
140.75
 30
0.0
 11
658.0000000000001
 21
140.75
 31
0.0
  0
LINE
  5
DB
  8
DIMNSIONS
  6
CONTINUOUS
 62
     7
 10
510.0000000000001
 20
0.75
 30
0.0
 11
658.0000000000001
 21
0.75
 31
0.0
  0
LINE
  5
DC
  8
DIMNSIONS
  6
CONTINUOUS
 62
     7
 10
650.0000000000001
 20
140.75
 30
0.0
 11
650.0000000000001
 21
0.75
 31
0.0
  0
LINE
  5
DD
  8
DIMNSIONS
  6
CONTINUOUS
 62
     7
 10
650.0000000000001
 20
140.75
 30
0.0
 11
654.0210695703996
 21
125.7431640625
 31
0.0
  0
LINE
  5
DE
  8
DIMNSIONS
  6
CONTINUOUS
 62
     7
 10
650.0000000000001
 20
140.75
 30
0.0
 11
645.9789304296006
 21
125.7431640625
 31
0.0
  0
LINE
  5
DF
  8
DIMNSIONS
  6
CONTINUOUS
 62
     7
 10
650.0000000000001
 20
0.75
 30
0.0
 11
645.9789304296006
 21
15.7568359375
 31
0.0
  0
LINE
  5
E0
  8
DIMNSIONS
  6
CONTINUOUS
 62
     7
 10
650.0000000000001
 20
0.75
 30
0.0
 11
654.0210695703996
 21
15.7568359375
 31
0.0
  0
TEXT
  5
E1
  8
DIMNSIONS
 62
     7
 10
643.0488888888891
 20
42.52777777777777
 30
0.0
 40
21.71788194444445
  1
140
 50
90.0
 41
0.7
 11
621.3310069444447
 21
42.52777777777777
 31
0.0
 73
     3
  0
TEXT
  5
E2
  8
DIMNSIONS
 62
     7
 10
630.0432400173613
 20
93.79230541087964
 30
0.0
 40
19.00314670138889
  1
※
 50
90.0
 41
0.7
 72
     1
 11
620.5416666666669
 21
100.0
 31
0.0
 73
     2
  0
TEXT
  5
E3
  8
DIMNSIONS
 62
     7
 10
680.0432400173613
 20
93.79230541087964
 30
0.0
 40
19.00314670138889
  1
※
 50
90.0
 41
0.7
 72
     1
 11
670.5416666666669
 21
100.0
 31
0.0
 73
     2
  0
TEXT
  5
E4
  8
DIMNSIONS
 62
     7
 10
580.0432400173613
 20
-41.28651668880406
 30
0.0
 40
19.00314670138889
  1
※
 50
90.0
 41
0.7
 72
     1
 11
570.5416666666669
 21
-35.07882209968369
 31
0.0
 73
     2
  0
TEXT
  5
E5
  8
DIMNSIONS
 62
     7
 10
412.7343987477432
 20
-80.04324001736113
 30
0.0
 40
19.00314670138889
  1
※
 41
0.7
 72
     1
 11
418.9420933368635
 21
-70.54166666666669
 31
0.0
 73
     2
  0
LINE
  5
E6
  8
DIMNSIONS
  6
CONTINUOUS
 62
     7
 10
501.0055280828648
 20
-21.75577598249879
 30
0.0
 11
562.5
 21
-175.0
 31
0.0
  0
LINE
  5
E7
  8
DIMNSIONS
  6
CONTINUOUS
 62
     7
 10
501.0055280828648
 20
-21.75577598249879
 30
0.0
 11
510.3554585551274
 21
-34.16355279822569
 31
0.0
  0
LINE
  5
E8
  8
DIMNSIONS
  6
CONTINUOUS
 62
     7
 10
501.0055280828648
 20
-21.75577598249879
 30
0.0
 11
502.898916987599
 21
-37.17619114553716
 31
0.0
  0
LINE
  5
E9
  8
DIMNSIONS
  6
CONTINUOUS
 62
     7
 10
562.5
 20
-175.0
 30
0.0
 11
582.5
 21
-175.0
 31
0.0
  0
TEXT
  5
EA
  8
DIMNSIONS
 62
     7
 10
582.5
 20
-185.16
 30
0.0
 40
21.71788194444445
  1
φ5.4壁取付穴(8ヵ所)
 41
0.7
 11
582.5
 21
-163.4421180555555
 31
0.0
 73
     3
  0
LINE
  5
EB
  8
DIMNSIONS
  6
CONTINUOUS
 62
     7
 10
-625.0500000000002
 20
-18.0
 30
0.0
 11
-760.0
 21
-18.0
 31
0.0
  0
LINE
  5
EC
  8
DIMNSIONS
  6
CONTINUOUS
 62
     7
 10
-635.5
 20
-41.0
 30
0.0
 11
-760.0
 21
-41.0
 31
0.0
  0
LINE
  5
ED
  8
DIMNSIONS
  6
CONTINUOUS
 62
     7
 10
-750.0
 20
-41.0
 30
0.0
 11
-750.0
 21
-18.0
 31
0.0
  0
LINE
  5
EE
  8
DIMNSIONS
  6
CONTINUOUS
 62
     7
 10
-750.0
 20
-18.0
 30
0.0
 11
-750.0
 21
70.55555555555556
 31
0.0
  0
LINE
  5
EF
  8
DIMNSIONS
  6
CONTINUOUS
 62
     7
 10
-750.0
 20
-18.0
 30
0.0
 11
-756.7003979515024
 21
7.0062255859375
 31
0.0
  0
LINE
  5
F0
  8
DIMNSIONS
  6
CONTINUOUS
 62
     7
 10
-750.0
 20
-18.0
 30
0.0
 11
-743.2996020484976
 21
7.0062255859375
 31
0.0
  0
LINE
  5
F1
  8
DIMNSIONS
  6
CONTINUOUS
 62
     7
 10
-750.0
 20
-41.0
 30
0.0
 11
-750.0
 21
-91.0
 31
0.0
  0
LINE
  5
F2
  8
DIMNSIONS
  6
CONTINUOUS
 62
     7
 10
-750.0
 20
-41.0
 30
0.0
 11
-743.2996020484976
 21
-66.0062255859375
 31
0.0
  0
LINE
  5
F3
  8
DIMNSIONS
  6
CONTINUOUS
 62
     7
 10
-750.0
 20
-41.0
 30
0.0
 11
-756.7003979515024
 21
-66.0062255859375
 31
0.0
  0
TEXT
  5
F4
  8
DIMNSIONS
 62
     7
 10
-759.938888888889
 20
-0.0000000000000017
 30
0.0
 40
27.14735243055556
  1
23.0
 50
90.0
 41
0.7
 11
-787.0862413194445
 21
0.0
 31
0.0
 73
     3
  0
LINE
  5
F5
  8
DIMNSIONS
  6
CONTINUOUS
 62
     7
 10
470.1864090575385
 20
261.3943903551379
 30
0.0
 11
475.0
 21
341.3
 31
0.0
  0
LINE
  5
F6
  8
DIMNSIONS
  6
CONTINUOUS
 62
     7
 10
470.1864090575385
 20
261.3943903551379
 30
0.0
 11
467.2219585675709
 21
276.6451660284459
 31
0.0
  0
LINE
  5
F7
  8
DIMNSIONS
  6
CONTINUOUS
 62
     7
 10
470.1864090575385
 20
261.3943903551379
 30
0.0
 11
475.2445074616194
 21
276.0841747606242
 31
0.0
  0
LINE
  5
F8
  8
DIMNSIONS
  6
CONTINUOUS
 62
     7
 10
475.0
 20
341.3
 30
0.0
 11
495.0
 21
341.3
 31
0.0
  0
TEXT
  5
F9
  8
DIMNSIONS
 62
     7
 10
495.0
 20
331.14
 30
0.0
 40
21.71788194444445
  1
φ6.2スピーカー取付穴(4ヵ所)
 41
0.7
 11
495.0
 21
352.8578819444445
 31
0.0
 73
     3
  0
LINE
  5
FA
  8
DIMNSIONS
  6
STYLE_06
 62
     7
 10
500.0000000000001
 20
180.75
 30
0.0
 11
500.0000000000001
 21
-39.25
 31
0.0
  0
LINE
  5
FB
  8
DIMNSIONS
  6
CONTINUOUS
 62
     7
 10
500.0000000000001
 20
-29.25
 30
0.0
 11
500.0000000000001
 21
-158.0
 31
0.0
  0
LINE
  5
FC
  8
DIMNSIONS
  6
CONTINUOUS
 62
     7
 10
445.0
 20
14.24616539198655
 30
0.0
 11
445.0
 21
-158.0
 31
0.0
  0
LINE
  5
FD
  8
DIMNSIONS
  6
CONTINUOUS
 62
     7
 10
445.0
 20
-150.0
 30
0.0
 11
368.5555555555555
 21
-150.0
 31
0.0
  0
LINE
  5
FE
  8
DIMNSIONS
  6
CONTINUOUS
 62
     7
 10
500.0000000000001
 20
-150.0
 30
0.0
 11
445.0
 21
-150.0
 31
0.0
  0
LINE
  5
FF
  8
DIMNSIONS
  6
CONTINUOUS
 62
     7
 10
500.0000000000001
 20
-150.0
 30
0.0
 11
484.9931640625001
 21
-154.0210695703995
 31
0.0
  0
LINE
  5
100
  8
DIMNSIONS
  6
CONTINUOUS
 62
     7
 10
500.0000000000001
 20
-150.0
 30
0.0
 11
484.9931640625001
 21
-145.9789304296005
 31
0.0
  0
LINE
  5
101
  8
DIMNSIONS
  6
CONTINUOUS
 62
     7
 10
445.0
 20
-150.0
 30
0.0
 11
460.0068359375
 21
-145.9789304296005
 31
0.0
  0
LINE
  5
102
  8
DIMNSIONS
  6
CONTINUOUS
 62
     7
 10
445.0
 20
-150.0
 30
0.0
 11
460.0068359375
 21
-154.0210695703995
 31
0.0
  0
TEXT
  5
103
  8
DIMNSIONS
 62
     7
 10
368.5555555555555
 20
-143.0488888888889
 30
0.0
 40
21.71788194444445
  1
55.0
 41
0.7
 11
368.5555555555555
 21
-121.3310069444444
 31
0.0
 73
     3
  0
LINE
  5
104
  8
DIMNSIONS
  6
CONTINUOUS
 62
     7
 10
555.0
 20
12.30020806325547
 30
0.0
 11
555.0
 21
-158.0
 31
0.0
  0
LINE
  5
105
  8
DIMNSIONS
  6
CONTINUOUS
 62
     7
 10
500.0000000000001
 20
-29.25
 30
0.0
 11
500.0000000000001
 21
-158.0
 31
0.0
  0
LINE
  5
106
  8
DIMNSIONS
  6
CONTINUOUS
 62
     7
 10
555.0
 20
-150.0
 30
0.0
 11
631.4444444444445
 21
-150.0
 31
0.0
  0
LINE
  5
107
  8
DIMNSIONS
  6
CONTINUOUS
 62
     7
 10
555.0
 20
-150.0
 30
0.0
 11
500.0000000000001
 21
-150.0
 31
0.0
  0
LINE
  5
108
  8
DIMNSIONS
  6
CONTINUOUS
 62
     7
 10
555.0
 20
-150.0
 30
0.0
 11
539.9931640625
 21
-154.0210695703995
 31
0.0
  0
LINE
  5
109
  8
DIMNSIONS
  6
CONTINUOUS
 62
     7
 10
555.0
 20
-150.0
 30
0.0
 11
539.9931640625
 21
-145.9789304296005
 31
0.0
  0
LINE
  5
10A
  8
DIMNSIONS
  6
CONTINUOUS
 62
     7
 10
500.0000000000001
 20
-150.0
 30
0.0
 11
515.0068359375001
 21
-145.9789304296005
 31
0.0
  0
LINE
  5
10B
  8
DIMNSIONS
  6
CONTINUOUS
 62
     7
 10
500.0000000000001
 20
-150.0
 30
0.0
 11
515.0068359375001
 21
-154.0210695703995
 31
0.0
  0
TEXT
  5
10C
  8
DIMNSIONS
 62
     7
 10
575.0
 20
-143.0488888888889
 30
0.0
 40
21.71788194444445
  1
55.0
 41
0.7
 11
575.0
 21
-121.3310069444444
 31
0.0
 73
     3
  0
TEXT
  5
10D
  8
DATA
 62
     7
 10
-874.9999999999999
 20
-1189.450887222222
 30
0.0
 40
19.00314670138889
  1
※仕様及び外観は予告なく変更されることがあります。
 41
0.7
 11
-874.9999999999999
 21
-1170.447740520834
 31
0.0
 73
     3
  0
TEXT
  5
10E
  8
DATA
 62
     7
 10
-874.9999999999999
 20
-1214.145331666667
 30
0.0
 40
19.00314670138889
  1
　また、同一商品でも若干の個体差があることがあります。ご了承ください。
 41
0.7
 11
-874.9999999999999
 21
-1195.142184965278
 31
0.0
 73
     3
  0
TEXT
  5
10F
  8
DATA
 62
     7
 10
499.9999999999999
 20
-1156.904765
 30
0.0
 40
24.4326171875
  1
Control HST
 41
0.7
 11
499.9999999999999
 21
-1132.4721478125
 31
0.0
 73
     3
  0
LINE
  5
110
  8
DATA
  6
CONTINUOUS
 62
     7
 10
555.0
 20
119.1997919367445
 30
0.0
 11
555.0
 21
22.30020806325547
 31
0.0
  0
LINE
  5
111
  8
DATA
  6
CONTINUOUS
 62
     7
 10
461.7500000000001
 20
191.5
 30
0.0
 11
538.2500000000001
 21
191.5
 31
0.0
  0
LINE
  5
112
  8
DATA
  6
CONTINUOUS
 62
     7
 10
445.0
 20
24.24616539198655
 30
0.0
 11
445.0
 21
117.2538346080136
 31
0.0
  0
LINE
  5
113
  8
DATA
  6
CONTINUOUS
 62
     7
 10
538.2500000000001
 20
-50.0
 30
0.0
 11
461.7500000000001
 21
-50.0
 31
0.0
  0
LINE
  5
114
  8
DATA
  6
CONTINUOUS
 62
     7
 10
460.0169260076101
 20
132.5041920899014
 30
0.0
 11
446.73307399239
 21
121.0389626720031
 31
0.0
  0
LINE
  5
115
  8
DATA
  6
CONTINUOUS
 62
     7
 10
540.0490780016777
 20
134.0007683319353
 30
0.0
 11
553.2009219983224
 21
123.0408983347314
 31
0.0
  0
LINE
  5
116
  8
DATA
  6
CONTINUOUS
 62
     7
 10
461.7500000000001
 20
191.5
 30
0.0
 11
461.7500000000001
 21
136.289320153891
 31
0.0
  0
LINE
  5
117
  8
DATA
  6
CONTINUOUS
 62
     7
 10
538.2500000000001
 20
191.5
 30
0.0
 11
538.2500000000001
 21
137.8418747299222
 31
0.0
  0
LINE
  5
118
  8
DATA
  6
CONTINUOUS
 62
     7
 10
527.0000000000001
 20
-45.19999999999999
 30
0.0
 11
527.0000000000001
 21
-40.0
 31
0.0
  0
LINE
  5
119
  8
DATA
  6
CONTINUOUS
 62
     7
 10
527.0000000000001
 20
-30.0
 30
0.0
 11
527.0000000000001
 21
171.5
 31
0.0
  0
LINE
  5
11A
  8
DATA
  6
CONTINUOUS
 62
     7
 10
511.0000000000001
 20
-45.19999999999999
 30
0.0
 11
511.0000000000001
 21
-40.0
 31
0.0
  0
LINE
  5
11B
  8
DATA
  6
CONTINUOUS
 62
     7
 10
511.0000000000001
 20
-30.0
 30
0.0
 11
511.0000000000001
 21
171.5
 31
0.0
  0
CIRCLE
  5
11C
  8
DATA
  6
CONTINUOUS
 62
     7
 10
457.0000000000001
 20
113.75
 30
0.0
 40
2.699999999999989
  0
TEXT
  5
11D
  8
DATA
 62
     7
 10
499.9999999999999
 20
-1085.674765
 30
0.0
 40
27.14735243055556
  1
JBL PROFESSIONAL
 41
0.7
 11
499.9999999999999
 21
-1058.527412569444
 31
0.0
 73
     3
  0
ARC
  5
11E
  8
DATA
  6
CONTINUOUS
 62
     7
 10
456.7500000000001
 20
136.289320153891
 30
0.0
 40
5.000000000000007
 50
310.79732049628
 51
359.9999999999993
  0
LINE
  5
11F
  8
DATA
  6
CONTINUOUS
 62
     7
 10
460.0169260076101
 20
8.995807910098563
 30
0.0
 11
446.73307399239
 21
20.46103732799702
 31
0.0
  0
LINE
  5
120
  8
DATA
  6
CONTINUOUS
 62
     7
 10
461.7500000000001
 20
-50.0
 30
0.0
 11
461.7500000000001
 21
5.210679846109031
 31
0.0
  0
ARC
  5
121
  8
DATA
  6
CONTINUOUS
 62
     7
 10
456.7500000000001
 20
5.210679846108974
 30
0.0
 40
5.0
 50
0.0000000000006821
 51
49.20267950372005
  0
LINE
  5
122
  8
DATA
  6
CONTINUOUS
 62
     7
 10
461.7500000000001
 20
188.2
 30
0.0
 11
538.2500000000001
 21
188.2
 31
0.0
  0
LINE
  5
123
  8
DATA
  6
CONTINUOUS
 62
     7
 10
461.7500000000001
 20
186.7
 30
0.0
 11
538.2500000000001
 21
186.7
 31
0.0
  0
LINE
  5
124
  8
DATA
  6
CONTINUOUS
 62
     7
 10
461.7500000000001
 20
-46.69999999999999
 30
0.0
 11
538.2500000000001
 21
-46.69999999999999
 31
0.0
  0
LINE
  5
125
  8
DATA
  6
CONTINUOUS
 62
     7
 10
461.7500000000001
 20
-45.19999999999999
 30
0.0
 11
538.2500000000001
 21
-45.19999999999999
 31
0.0
  0
ARC
  5
126
  8
DATA
  6
CONTINUOUS
 62
     7
 10
543.2500000000001
 20
137.8418747299223
 30
0.0
 40
5.0
 50
180.0000000000006
 51
230.1944289077351
  0
LINE
  5
127
  8
DATA
  6
CONTINUOUS
 62
     7
 10
540.0490780016777
 20
7.499231668064681
 30
0.0
 11
553.2009219983224
 21
18.45910166526858
 31
0.0
  0
LINE
  5
128
  8
DATA
  6
CONTINUOUS
 62
     7
 10
538.2500000000001
 20
-50.0
 30
0.0
 11
538.2500000000001
 21
3.65812527007779
 31
0.0
  0
ARC
  5
129
  8
DATA
  6
CONTINUOUS
 62
     7
 10
543.2500000000001
 20
3.658125270077733
 30
0.0
 40
5.000000000000072
 50
129.805571092265
 51
179.9999999999994
  0
LINE
  5
12A
  8
DATA
  6
CONTINUOUS
 62
     7
 10
470.0500000000001
 20
250.0
 30
0.0
 11
529.9500000000002
 21
250.0
 31
0.0
  0
LINE
  5
12B
  8
DATA
  6
CONTINUOUS
 62
     7
 10
445.0
 20
316.3
 30
0.0
 11
509.2522729151326
 21
316.3
 31
0.0
  0
LINE
  5
12C
  8
DATA
  6
CONTINUOUS
 62
     7
 10
528.7477270848676
 20
316.3
 30
0.0
 11
555.0
 21
316.3
 31
0.0
  0
LINE
  5
12D
  8
DATA
  6
CONTINUOUS
 62
     7
 10
445.0
 20
313.0000000000001
 30
0.0
 11
461.7500000000001
 21
313.0000000000001
 31
0.0
  0
LINE
  5
12E
  8
DATA
  6
CONTINUOUS
 62
     7
 10
538.2500000000001
 20
313.0000000000001
 30
0.0
 11
555.0
 21
313.0000000000001
 31
0.0
  0
LINE
  5
12F
  8
DATA
  6
CONTINUOUS
 62
     7
 10
791.3
 20
-44.0
 30
0.0
 11
791.3
 21
185.5
 31
0.0
  0
LINE
  5
130
  8
DATA
  6
CONTINUOUS
 62
     7
 10
725.0
 20
-50.0
 30
0.0
 11
737.8
 21
-50.0
 31
0.0
  0
LINE
  5
131
  8
DATA
  6
CONTINUOUS
 62
     7
 10
744.8
 20
-50.0
 30
0.0
 11
785.3
 21
-50.0
 31
0.0
  0
LINE
  5
132
  8
DATA
  6
CONTINUOUS
 62
     7
 10
725.0
 20
-46.69999999999999
 30
0.0
 11
737.8
 21
-46.69999999999999
 31
0.0
  0
LINE
  5
133
  8
DATA
  6
CONTINUOUS
 62
     7
 10
744.8
 20
-46.69999999999999
 30
0.0
 11
785.3
 21
-46.69999999999999
 31
0.0
  0
LINE
  5
134
  8
DATA
  6
CONTINUOUS
 62
     7
 10
781.3
 20
-30.0
 30
0.0
 11
781.3
 21
171.5
 31
0.0
  0
POLYLINE
  5
135
  8
DATA
  6
CONTINUOUS
 62
     7
 66
     1
 10
0.0
 20
0.0
 30
0.0
 70
     1
  0
VERTEX
  5
394
  8
DATA
  6
CONTINUOUS
 62
     7
 10
508.7500000000001
 20
-30.0
 30
0.0
  0
VERTEX
  5
395
  8
DATA
  6
CONTINUOUS
 62
     7
 10
529.2500000000001
 20
-30.0
 30
0.0
  0
VERTEX
  5
396
  8
DATA
  6
CONTINUOUS
 62
     7
 10
529.2500000000001
 20
-40.0
 30
0.0
  0
VERTEX
  5
397
  8
DATA
  6
CONTINUOUS
 62
     7
 10
508.7500000000001
 20
-40.0
 30
0.0
  0
SEQEND
  5
3AE
  8
DATA
  6
CONTINUOUS
 62
     7
  0
LINE
  5
13C
  8
DATA
  6
CONTINUOUS
 62
     7
 10
527.0000000000001
 20
186.7
 30
0.0
 11
527.0000000000001
 21
181.5
 31
0.0
  0
LINE
  5
13D
  8
DATA
  6
CONTINUOUS
 62
     7
 10
511.0000000000001
 20
186.7
 30
0.0
 11
511.0000000000001
 21
181.5
 31
0.0
  0
POLYLINE
  5
13E
  8
DATA
  6
CONTINUOUS
 62
     7
 66
     1
 10
0.0
 20
0.0
 30
0.0
 70
     1
  0
VERTEX
  5
398
  8
DATA
  6
CONTINUOUS
 62
     7
 10
508.7500000000001
 20
181.5
 30
0.0
  0
VERTEX
  5
399
  8
DATA
  6
CONTINUOUS
 62
     7
 10
529.2500000000001
 20
181.5
 30
0.0
  0
VERTEX
  5
39A
  8
DATA
  6
CONTINUOUS
 62
     7
 10
529.2500000000001
 20
171.5
 30
0.0
  0
VERTEX
  5
39B
  8
DATA
  6
CONTINUOUS
 62
     7
 10
508.7500000000001
 20
171.5
 30
0.0
  0
SEQEND
  5
3AF
  8
DATA
  6
CONTINUOUS
 62
     7
  0
CIRCLE
  5
145
  8
DATA
  6
CONTINUOUS
 62
     7
 10
543.0000000000001
 20
113.75
 30
0.0
 40
2.700000000000045
  0
CIRCLE
  5
146
  8
DATA
  6
CONTINUOUS
 62
     7
 10
457.0000000000001
 20
27.75
 30
0.0
 40
2.699999999999989
  0
CIRCLE
  5
147
  8
DATA
  6
CONTINUOUS
 62
     7
 10
543.0000000000001
 20
27.75
 30
0.0
 40
2.700000000000045
  0
CIRCLE
  5
148
  8
DATA
  6
CONTINUOUS
 62
     7
 10
500.0000000000001
 20
140.75
 30
0.0
 40
2.699999999999989
  0
CIRCLE
  5
149
  8
DATA
  6
CONTINUOUS
 62
     7
 10
500.0000000000001
 20
0.75
 30
0.0
 40
2.699999999999989
  0
CIRCLE
  5
14A
  8
DATA
  6
CONTINUOUS
 62
     7
 10
500.0000000000001
 20
160.75
 30
0.0
 40
2.699999999999989
  0
CIRCLE
  5
14B
  8
DATA
  6
CONTINUOUS
 62
     7
 10
500.0000000000001
 20
-19.25
 30
0.0
 40
2.699999999999989
  0
ARC
  5
14C
  8
DATA
  6
CONTINUOUS
 62
     7
 10
741.3
 20
-50.0333333333333
 30
0.0
 40
4.833333333333321
 50
43.60281897270346
 51
136.3971810272965
  0
ARC
  5
14D
  8
DATA
  6
CONTINUOUS
 62
     7
 10
741.3
 20
-53.33333333333331
 30
0.0
 40
4.833333333333321
 50
43.60281897270346
 51
136.3971810272965
  0
LINE
  5
14E
  8
DATA
  6
CONTINUOUS
 62
     7
 10
725.0
 20
-50.0
 30
0.0
 11
725.0
 21
-46.69999999999999
 31
0.0
  0
LINE
  5
14F
  8
DATA
  6
CONTINUOUS
 62
     7
 10
725.0
 20
191.5
 30
0.0
 11
737.8
 21
191.5
 31
0.0
  0
LINE
  5
150
  8
DATA
  6
CONTINUOUS
 62
     7
 10
744.8
 20
191.5
 30
0.0
 11
785.3
 21
191.5
 31
0.0
  0
LINE
  5
151
  8
DATA
  6
CONTINUOUS
 62
     7
 10
725.0
 20
188.2
 30
0.0
 11
737.8
 21
188.2
 31
0.0
  0
LINE
  5
152
  8
DATA
  6
CONTINUOUS
 62
     7
 10
744.8
 20
188.2
 30
0.0
 11
785.3
 21
188.2
 31
0.0
  0
ARC
  5
153
  8
DATA
  6
CONTINUOUS
 62
     7
 10
741.3
 20
191.5333333333333
 30
0.0
 40
4.833333333333321
 50
223.6028189727035
 51
316.3971810272965
  0
ARC
  5
154
  8
DATA
  6
CONTINUOUS
 62
     7
 10
741.3
 20
194.8333333333333
 30
0.0
 40
4.833333333333321
 50
223.6028189727035
 51
316.3971810272965
  0
LINE
  5
155
  8
DATA
  6
CONTINUOUS
 62
     7
 10
725.0
 20
191.5
 30
0.0
 11
725.0
 21
188.2
 31
0.0
  0
LINE
  5
156
  8
DATA
  6
CONTINUOUS
 62
     7
 10
788.0
 20
-44.0
 30
0.0
 11
788.0
 21
185.5
 31
0.0
  0
ARC
  5
157
  8
DATA
  6
CONTINUOUS
 62
     7
 10
785.3
 20
185.5
 30
0.0
 40
6.0
 50
0.0
 51
90.0
  0
ARC
  5
158
  8
DATA
  6
CONTINUOUS
 62
     7
 10
785.3
 20
-44.0
 30
0.0
 40
6.0
 50
270.0
 51
0.0
  0
ARC
  5
159
  8
DATA
  6
CONTINUOUS
 62
     7
 10
785.3
 20
-44.0
 30
0.0
 40
2.699999999999989
 50
270.0
 51
0.0
  0
ARC
  5
15A
  8
DATA
  6
CONTINUOUS
 62
     7
 10
785.3
 20
185.5
 30
0.0
 40
2.700000000000045
 50
0.0
 51
90.0
  0
LINE
  5
15B
  8
DATA
  6
CONTINUOUS
 62
     7
 10
788.0
 20
-40.0
 30
0.0
 11
781.3
 21
-40.0
 31
0.0
  0
LINE
  5
15C
  8
DATA
  6
CONTINUOUS
 62
     7
 10
781.3
 20
-30.0
 30
0.0
 11
788.0
 21
-30.0
 31
0.0
  0
LINE
  5
15D
  8
DATA
  6
CONTINUOUS
 62
     7
 10
788.0
 20
171.5
 30
0.0
 11
781.3
 21
171.5
 31
0.0
  0
LINE
  5
15E
  8
DATA
  6
CONTINUOUS
 62
     7
 10
781.3
 20
181.5
 30
0.0
 11
788.0
 21
181.5
 31
0.0
  0
LINE
  5
15F
  8
DATA
  6
CONTINUOUS
 62
     7
 10
781.3
 20
181.5
 30
0.0
 11
781.3
 21
188.2
 31
0.0
  0
LINE
  5
160
  8
DATA
  6
CONTINUOUS
 62
     7
 10
781.3
 20
-40.0
 30
0.0
 11
781.3
 21
-46.69999999999999
 31
0.0
  0
LINE
  5
161
  8
DATA
  6
CONTINUOUS
 62
     7
 10
555.0
 20
316.3
 30
0.0
 11
555.0
 21
313.0000000000001
 31
0.0
  0
LINE
  5
162
  8
DATA
  6
CONTINUOUS
 62
     7
 10
445.0
 20
313.0000000000001
 30
0.0
 11
445.0
 21
316.3
 31
0.0
  0
LINE
  5
163
  8
DATA
  6
CONTINUOUS
 62
     7
 10
461.7500000000001
 20
316.3
 30
0.0
 11
461.7500000000001
 21
258.3
 31
0.0
  0
LINE
  5
164
  8
DATA
  6
CONTINUOUS
 62
     7
 10
538.2500000000001
 20
316.3
 30
0.0
 11
538.2500000000001
 21
258.3
 31
0.0
  0
LINE
  5
165
  8
DATA
  6
CONTINUOUS
 62
     7
 10
538.2500000000001
 20
269.8
 30
0.0
 11
461.7500000000001
 21
269.8
 31
0.0
  0
LINE
  5
166
  8
DATA
  6
CONTINUOUS
 62
     7
 10
538.2500000000001
 20
262.8
 30
0.0
 11
461.7500000000001
 21
262.8
 31
0.0
  0
CIRCLE
  5
167
  8
DATA
  6
CONTINUOUS
 62
     7
 10
470.0000000000001
 20
258.3
 30
0.0
 40
3.100000000000023
  0
CIRCLE
  5
168
  8
DATA
  6
CONTINUOUS
 62
     7
 10
530.0000000000001
 20
258.3
 30
0.0
 40
3.100000000000023
  0
ARC
  5
169
  8
DATA
  6
CONTINUOUS
 62
     7
 10
470.0500000000001
 20
258.3
 30
0.0
 40
8.299999999999955
 50
180.0
 51
270.0000000000004
  0
ARC
  5
16A
  8
DATA
  6
CONTINUOUS
 62
     7
 10
529.9500000000002
 20
258.3
 30
0.0
 40
8.300000000000011
 50
270.0
 51
0.0
  0
ARC
  5
16B
  8
DATA
  6
CONTINUOUS
 62
     7
 10
519.0000000000001
 20
310.3
 30
0.0
 40
4.000000000000001
 50
209.551923875954
 51
330.448076124046
  0
LINE
  5
16C
  8
DATA
  6
CONTINUOUS
 62
     7
 10
526.1379998346836
 20
314.7796363335788
 30
0.0
 11
522.4796363335789
 21
308.3271515552283
 31
0.0
  0
LINE
  5
16D
  8
DATA
  6
CONTINUOUS
 62
     7
 10
511.8620001653167
 20
314.7796363335788
 30
0.0
 11
515.5203636664213
 21
308.3271515552283
 31
0.0
  0
ARC
  5
16E
  8
DATA
  6
CONTINUOUS
 62
     7
 10
509.2522729151326
 20
313.3
 30
0.0
 40
2.999999999999959
 50
29.55192387595475
 51
90.0000000000011
  0
ARC
  5
16F
  8
DATA
  6
CONTINUOUS
 62
     7
 10
528.7477270848676
 20
313.3
 30
0.0
 40
3.0
 50
90.0
 51
150.4480761240453
  0
LINE
  5
170
  8
DATA
  6
STYLE_06
 62
     7
 10
447.5000000000001
 20
113.75
 30
0.0
 11
552.5000000000001
 21
113.75
 31
0.0
  0
LINE
  5
171
  8
DATA
  6
STYLE_06
 62
     7
 10
447.5000000000001
 20
27.75
 30
0.0
 11
552.5000000000001
 21
27.75
 31
0.0
  0
LINE
  5
172
  8
DATA
  6
STYLE_06
 62
     7
 10
457.0000000000001
 20
18.25
 30
0.0
 11
457.0000000000001
 21
123.25
 31
0.0
  0
LINE
  5
173
  8
DATA
  6
STYLE_06
 62
     7
 10
543.0000000000001
 20
18.25
 30
0.0
 11
543.0000000000001
 21
123.25
 31
0.0
  0
LINE
  5
174
  8
DATA
  6
CONTINUOUS
 62
     7
 10
788.0
 20
121.5000000000001
 30
0.0
 11
791.3
 21
121.5000000000001
 31
0.0
  0
LINE
  5
175
  8
DATA
  6
CONTINUOUS
 62
     7
 10
788.0
 20
135.4999999999999
 30
0.0
 11
791.3
 21
135.4999999999999
 31
0.0
  0
LINE
  5
176
  8
DATA
  6
CONTINUOUS
 62
     7
 10
788.0
 20
19.99999999999989
 30
0.0
 11
791.3
 21
19.99999999999989
 31
0.0
  0
LINE
  5
177
  8
DATA
  6
CONTINUOUS
 62
     7
 10
788.0
 20
6.000000000000114
 30
0.0
 11
791.3
 21
6.000000000000114
 31
0.0
  0
LINE
  5
178
  8
DATA
  6
CONTINUOUS
 62
     7
 10
550.0
 20
-262.5968735059701
 30
0.0
 11
750.0
 21
-262.5968735059701
 31
0.0
  0
TEXT
  5
179
  8
DATA
 62
     7
 10
595.5243127893518
 20
-251.0736762152778
 30
0.0
 40
27.14735243055556
  1
壁取付金具
 41
0.7
 72
     1
 11
650.0
 21
-237.5
 31
0.0
 73
     2
  0
LINE
  5
17A
  8
DATA
  6
CONTINUOUS
 62
     7
 10
-484.5000000000001
 20
-41.0
 30
0.0
 11
-511.7500000000001
 21
-41.0
 31
0.0
  0
LINE
  5
17B
  8
DATA
  6
CONTINUOUS
 62
     7
 10
-588.25
 20
-41.0
 30
0.0
 11
-615.5
 21
-41.0
 31
0.0
  0
LINE
  5
17C
  8
DATA
  6
CONTINUOUS
 62
     7
 10
-472.5000000000001
 20
-48.0
 30
0.0
 11
-511.7500000000001
 21
-48.0
 31
0.0
  0
LINE
  5
17D
  8
DATA
  6
CONTINUOUS
 62
     7
 10
-588.25
 20
-48.0
 30
0.0
 11
-627.5
 21
-48.0
 31
0.0
  0
LINE
  5
17E
  8
DATA
  6
CONTINUOUS
 62
     7
 10
-482.5000000000001
 20
-48.0
 30
0.0
 11
-482.5000000000001
 21
-43.0
 31
0.0
  0
LINE
  5
17F
  8
DATA
  6
CONTINUOUS
 62
     7
 10
-731.0
 20
-100.0
 30
0.0
 11
-369.0000000000001
 21
-100.0
 31
0.0
  0
LINE
  5
180
  8
DATA
  6
CONTINUOUS
 62
     7
 10
-617.5
 20
-43.0
 30
0.0
 11
-617.5
 21
-48.0
 31
0.0
  0
LINE
  5
181
  8
DATA
  6
CONTINUOUS
 62
     7
 10
-375.5000000000001
 20
-97.55590402894836
 30
0.0
 11
-375.5000000000001
 21
-100.0
 31
0.0
  0
LINE
  5
182
  8
DATA
  6
CONTINUOUS
 62
     7
 10
-457.2883211678832
 20
-49.91240875912399
 30
0.0
 11
-438.6895363370457
 21
-51.97894040699498
 31
0.0
  0
LINE
  5
183
  8
DATA
  6
CONTINUOUS
 62
     7
 10
-421.8701857092861
 20
-58.53096666065971
 30
0.0
 11
-379.1797160562633
 21
-89.80645173407333
 31
0.0
  0
ARC
  5
184
  8
DATA
  6
CONTINUOUS
 62
     7
 10
-385.5000000000001
 20
-97.55590402894836
 30
0.0
 40
10.0
 50
0.0
 51
50.80006715477941
  0
LINE
  5
185
  8
DATA
  6
CONTINUOUS
 62
     7
 10
-724.5
 20
-97.55590402894836
 30
0.0
 11
-724.5
 21
-100.0
 31
0.0
  0
LINE
  5
186
  8
DATA
  6
CONTINUOUS
 62
     7
 10
-642.7116788321168
 20
-49.91240875912399
 30
0.0
 11
-661.3104636629541
 21
-51.97894040699487
 31
0.0
  0
LINE
  5
187
  8
DATA
  6
CONTINUOUS
 62
     7
 10
-678.1298142907137
 20
-58.5309666606596
 30
0.0
 11
-720.8202839437367
 21
-89.80645173407333
 31
0.0
  0
ARC
  5
188
  8
DATA
  6
CONTINUOUS
 62
     7
 10
-714.5
 20
-97.55590402894836
 30
0.0
 40
10.00000000000001
 50
129.1999328452206
 51
180.0
  0
ARC
  5
189
  8
DATA
  6
CONTINUOUS
 62
     7
 10
-484.5000000000001
 20
-43.0
 30
0.0
 40
2.0
 50
0.0
 51
90.0
  0
ARC
  5
18A
  8
DATA
  6
CONTINUOUS
 62
     7
 10
-615.5
 20
-43.0
 30
0.0
 40
2.0
 50
90.0
 51
180.0
  0
LINE
  5
18B
  8
DATA
  6
CONTINUOUS
 62
     7
 10
-510.5000000000001
 20
-48.34702022974989
 30
0.0
 11
-510.5000000000001
 21
-76.0
 31
0.0
  0
LINE
  5
18C
  8
DATA
  6
CONTINUOUS
 62
     7
 10
-583.0000000000002
 20
-85.0
 30
0.0
 11
-516.9999999999998
 21
-85.0
 31
0.0
  0
LINE
  5
18D
  8
DATA
  6
CONTINUOUS
 62
     7
 10
-369.0000000000001
 20
-100.0
 30
0.0
 11
-369.0000000000001
 21
-120.3032701470053
 31
0.0
  0
LINE
  5
18E
  8
DATA
  6
CONTINUOUS
 62
     7
 10
-731.0
 20
-100.0
 30
0.0
 11
-731.0
 21
-120.3032701470053
 31
0.0
  0
LINE
  5
18F
  8
DATA
  6
CONTINUOUS
 62
     7
 10
-472.5000000000001
 20
-48.0
 30
0.0
 11
-472.5000000000001
 21
-49.43455497382183
 31
0.0
  0
LINE
  5
190
  8
DATA
  6
CONTINUOUS
 62
     7
 10
-627.5
 20
-48.0
 30
0.0
 11
-627.4235972286879
 21
-49.43215488676492
 31
0.0
  0
LINE
  5
191
  8
DATA
  6
CONTINUOUS
 62
     7
 10
-626.0144957554276
 20
-46.70869745325649
 30
0.0
 11
-624.7125353714373
 21
-45.92752122286237
 31
0.0
  0
LINE
  5
192
  8
DATA
  6
CONTINUOUS
 62
     7
 10
-626.5
 20
-48.0
 30
0.0
 11
-626.5
 21
-47.56619037896905
 31
0.0
  0
LINE
  5
193
  8
DATA
  6
CONTINUOUS
 62
     7
 10
-618.5
 20
-47.56619037896905
 30
0.0
 11
-618.5
 21
-48.0
 31
0.0
  0
LINE
  5
194
  8
DATA
  6
CONTINUOUS
 62
     7
 10
-620.2874646285627
 20
-45.92752122286237
 30
0.0
 11
-618.9855042445724
 21
-46.70869745325649
 31
0.0
  0
LINE
  5
195
  8
DATA
  6
CONTINUOUS
 62
     7
 10
-623.1690481051546
 20
-45.5
 30
0.0
 11
-621.8309518948452
 21
-45.5
 31
0.0
  0
ARC
  5
196
  8
DATA
  6
CONTINUOUS
 62
     7
 10
-625.4999999999995
 20
-47.56619037896917
 30
0.0
 40
1.000000000000365
 50
120.9637565320936
 51
179.9999999999935
  0
ARC
  5
197
  8
DATA
  6
CONTINUOUS
 62
     7
 10
-623.1690481051548
 20
-48.49999999999966
 30
0.0
 40
2.999999999999659
 50
89.99999999999567
 51
120.9637565320748
  0
ARC
  5
198
  8
DATA
  6
CONTINUOUS
 62
     7
 10
-619.5000000000002
 20
-47.56619037896917
 30
0.0
 40
1.000000000000227
 50
0.0000000000065138
 51
59.03624346791754
  0
ARC
  5
199
  8
DATA
  6
CONTINUOUS
 62
     7
 10
-621.8309518948449
 20
-48.49999999999966
 30
0.0
 40
2.999999999999526
 50
59.03624346792891
 51
90.00000000000436
  0
LINE
  5
19A
  8
DATA
  6
CONTINUOUS
 62
     7
 10
-481.0144957554278
 20
-46.70869745325649
 30
0.0
 11
-479.7125353714376
 21
-45.92752122286237
 31
0.0
  0
LINE
  5
19B
  8
DATA
  6
CONTINUOUS
 62
     7
 10
-481.5000000000003
 20
-48.0
 30
0.0
 11
-481.5000000000003
 21
-47.56619037896905
 31
0.0
  0
LINE
  5
19C
  8
DATA
  6
CONTINUOUS
 62
     7
 10
-473.5000000000003
 20
-47.56619037896905
 30
0.0
 11
-473.5000000000003
 21
-48.0
 31
0.0
  0
LINE
  5
19D
  8
DATA
  6
CONTINUOUS
 62
     7
 10
-475.287464628563
 20
-45.92752122286237
 30
0.0
 11
-473.9855042445727
 21
-46.70869745325649
 31
0.0
  0
LINE
  5
19E
  8
DATA
  6
CONTINUOUS
 62
     7
 10
-478.1690481051549
 20
-45.5
 30
0.0
 11
-476.8309518948454
 21
-45.5
 31
0.0
  0
ARC
  5
19F
  8
DATA
  6
CONTINUOUS
 62
     7
 10
-480.4999999999998
 20
-47.56619037896917
 30
0.0
 40
1.000000000000365
 50
120.9637565320936
 51
179.9999999999935
  0
ARC
  5
1A0
  8
DATA
  6
CONTINUOUS
 62
     7
 10
-478.1690481051551
 20
-48.49999999999966
 30
0.0
 40
2.999999999999659
 50
89.99999999999567
 51
120.9637565320748
  0
ARC
  5
1A1
  8
DATA
  6
CONTINUOUS
 62
     7
 10
-474.5000000000005
 20
-47.56619037896917
 30
0.0
 40
1.000000000000227
 50
0.0000000000065138
 51
59.03624346791754
  0
ARC
  5
1A2
  8
DATA
  6
CONTINUOUS
 62
     7
 10
-476.8309518948452
 20
-48.49999999999966
 30
0.0
 40
2.999999999999526
 50
59.03624346792891
 51
90.00000000000436
  0
ARC
  5
1A3
  8
DATA
  6
CONTINUOUS
 62
     7
 10
-516.9999999999998
 20
-77.0
 30
0.0
 40
7.999999999999943
 50
270.0
 51
3.0189017290528
  0
LINE
  5
1A4
  8
DATA
  6
CONTINUOUS
 62
     7
 10
-510.5000000000001
 20
-71.0
 30
0.0
 11
-511.7500000000001
 21
-71.0
 31
0.0
  0
LINE
  5
1A5
  8
DATA
  6
CONTINUOUS
 62
     7
 10
-588.25
 20
-71.0
 30
0.0
 11
-589.5
 21
-71.0
 31
0.0
  0
LINE
  5
1A6
  8
DATA
  6
CONTINUOUS
 62
     7
 10
-510.5000000000001
 20
-62.0
 30
0.0
 11
-511.7500000000001
 21
-62.0
 31
0.0
  0
LINE
  5
1A7
  8
DATA
  6
CONTINUOUS
 62
     7
 10
-588.25
 20
-62.0
 30
0.0
 11
-589.5
 21
-62.0
 31
0.0
  0
ARC
  5
1A8
  8
DATA
  6
CONTINUOUS
 62
     7
 10
-550.0
 20
-195.0
 30
0.0
 40
30.00000000000008
 50
238.7615006501724
 51
301.2384993498273
  0
LINE
  5
1A9
  8
DATA
  6
CONTINUOUS
 62
     7
 10
-731.0
 20
-120.3032701470053
 30
0.0
 11
-565.5580493859904
 21
-220.6504795140966
 31
0.0
  0
LINE
  5
1AA
  8
DATA
  6
CONTINUOUS
 62
     7
 10
-369.0000000000001
 20
-120.3032701470053
 30
0.0
 11
-534.4419506140096
 21
-220.6504795140966
 31
0.0
  0
ARC
  5
1AB
  8
DATA
  6
CONTINUOUS
 62
     7
 10
-550.0
 20
-187.0
 30
0.0
 40
30.00000000000008
 50
238.7615006501724
 51
301.2384993498273
  0
LINE
  5
1AC
  8
DATA
  6
CONTINUOUS
 62
     7
 10
-731.0
 20
-112.3032701470053
 30
0.0
 11
-565.5580493859904
 21
-212.6504795140966
 31
0.0
  0
LINE
  5
1AD
  8
DATA
  6
CONTINUOUS
 62
     7
 10
-369.0000000000001
 20
-112.3032701470053
 30
0.0
 11
-534.4419506140096
 21
-212.6504795140966
 31
0.0
  0
ARC
  5
1AE
  8
DATA
  6
CONTINUOUS
 62
     7
 10
-442.5546397496653
 20
-86.76487112057157
 30
0.0
 40
34.99999999999989
 50
53.77310454833381
 51
83.65980825409005
  0
ARC
  5
1AF
  8
DATA
  6
CONTINUOUS
 62
     7
 10
-657.4453602503343
 20
-86.76487112057157
 30
0.0
 40
35.00000000000007
 50
96.3401917459103
 51
126.2268954516664
  0
ARC
  5
1B0
  8
DATA
  6
CONTINUOUS
 62
     7
 10
-582.5
 20
-76.0
 30
0.0
 40
7.0
 50
180.0
 51
247.9756871629598
  0
ARC
  5
1B1
  8
DATA
  6
CONTINUOUS
 62
     7
 10
-517.5
 20
-76.0
 30
0.0
 40
6.999999999999996
 50
292.0243128370402
 51
0.0
  0
ARC
  5
1B2
  8
DATA
  6
CONTINUOUS
 62
     7
 10
-550.0
 20
-2296.241297292145
 30
0.0
 40
2248.241297292145
 50
87.6365995071611
 51
89.02516277575909
  0
ARC
  5
1B3
  8
DATA
  6
CONTINUOUS
 62
     7
 10
-550.0
 20
-2296.241297292145
 30
0.0
 40
2248.241297292145
 50
90.9748372242408
 51
92.3634004928389
  0
LINE
  5
1B4
  8
DATA
  6
CONTINUOUS
 62
     7
 10
-510.5000000000001
 20
-48.34702022974989
 30
0.0
 11
-509.0111022806632
 21
-76.57867681054074
 31
0.0
  0
LINE
  5
1B5
  8
DATA
  6
CONTINUOUS
 62
     7
 10
-589.5
 20
-48.34702022974989
 30
0.0
 11
-589.5
 21
-76.0
 31
0.0
  0
ARC
  5
1B6
  8
DATA
  6
CONTINUOUS
 62
     7
 10
-583.0000000000002
 20
-77.0
 30
0.0
 40
7.999999999999845
 50
176.9810982709472
 51
270.0
  0
LINE
  5
1B7
  8
DATA
  6
CONTINUOUS
 62
     7
 10
-589.5
 20
-48.34702022974989
 30
0.0
 11
-590.9888977193368
 21
-76.57867681054074
 31
0.0
  0
ARC
  5
1B8
  8
DATA
  6
CONTINUOUS
 62
     7
 10
-483.7987166905687
 20
-139.4184284057357
 30
0.0
 40
221.1974856950458
 50
161.7193650507681
 51
169.7347947453666
  0
ARC
  5
1B9
  8
DATA
  6
CONTINUOUS
 62
     7
 10
-616.2012833094313
 20
-139.4184284057357
 30
0.0
 40
221.1974856950459
 50
10.26520525463346
 51
18.28063494923187
  0
LINE
  5
1BA
  8
DATA
  6
CONTINUOUS
 62
     7
 10
-590.9620312866168
 20
-294.0
 30
0.0
 11
-509.0379687133832
 21
-294.0
 31
0.0
  0
LINE
  5
1BB
  8
DATA
  6
CONTINUOUS
 62
     7
 10
-642.852051800065
 20
-550.0
 30
0.0
 11
-457.1479481999348
 21
-550.0
 31
0.0
  0
LINE
  5
1BC
  8
DATA
  6
CONTINUOUS
 62
     7
 10
-731.003150345326
 20
-310.6974928635617
 30
0.0
 11
-712.6250500189094
 21
-541.6137115241672
 31
0.0
  0
LINE
  5
1BD
  8
DATA
  6
CONTINUOUS
 62
     7
 10
-369.0000000000001
 20
-310.7363626906549
 30
0.0
 11
-387.3781003264167
 21
-541.6525813512604
 31
0.0
  0
LINE
  5
1BE
  8
DATA
  6
CONTINUOUS
 62
     7
 10
-373.4802040289754
 20
-321.0975288175581
 30
0.0
 11
-389.7317070625914
 21
-539.4865176986185
 31
0.0
  0
LINE
  5
1BF
  8
DATA
  6
CONTINUOUS
 62
     7
 10
-373.6276791844717
 20
-323.0975288175581
 30
0.0
 11
-726.227798136679
 21
-323.0975288175581
 31
0.0
  0
LINE
  5
1C0
  8
DATA
  6
CONTINUOUS
 62
     7
 10
-457.1479481999348
 20
-550.0
 30
0.0
 11
-550.0
 21
-543.565304110243
 31
0.0
  0
LINE
  5
1C1
  8
DATA
  6
CONTINUOUS
 62
     7
 10
-397.2000798799159
 20
-544.9588977580291
 30
0.0
 11
-457.1479481999348
 21
-547.7612151628701
 31
0.0
  0
LINE
  5
1C2
  8
DATA
  6
CONTINUOUS
 62
     7
 10
-397.2000798799159
 20
-544.9588977580291
 30
0.0
 11
-394.7795599591755
 21
-544.9588977580291
 31
0.0
  0
LINE
  5
1C3
  8
DATA
  6
CONTINUOUS
 62
     7
 10
-726.3739519828325
 20
-321.0975288175581
 30
0.0
 11
-710.2102930290721
 21
-540.2844408163802
 31
0.0
  0
LINE
  5
1C4
  8
DATA
  6
CONTINUOUS
 62
     7
 10
-726.3739519828325
 20
-321.0975288175581
 30
0.0
 11
-373.4802040289754
 21
-321.0975288175581
 31
0.0
  0
LINE
  5
1C5
  8
DATA
  6
CONTINUOUS
 62
     7
 10
-394.5042369946787
 20
-544.1175157121829
 30
0.0
 11
-457.1479481999348
 21
-546.8032954641975
 31
0.0
  0
LINE
  5
1C6
  8
DATA
  6
CONTINUOUS
 62
     7
 10
-565.0
 20
-443.0
 30
0.0
 11
-535.0
 21
-443.0
 31
0.0
  0
LINE
  5
1C7
  8
DATA
  6
CONTINUOUS
 62
     7
 10
-565.0
 20
-417.0
 30
0.0
 11
-535.0
 21
-417.0
 31
0.0
  0
LINE
  5
1C8
  8
DATA
  6
CONTINUOUS
 62
     7
 10
-535.0
 20
-417.0
 30
0.0
 11
-535.0
 21
-443.0
 31
0.0
  0
LINE
  5
1C9
  8
DATA
  6
CONTINUOUS
 62
     7
 10
-565.0
 20
-417.0
 30
0.0
 11
-565.0
 21
-443.0
 31
0.0
  0
POLYLINE
  5
1CA
  8
DATA
  6
CONTINUOUS
 62
     7
 66
     1
 10
0.0
 20
0.0
 30
0.0
 70
     1
  0
VERTEX
  5
39C
  8
DATA
  6
CONTINUOUS
 62
     7
 10
-562.5
 20
-420.0
 30
0.0
  0
VERTEX
  5
39D
  8
DATA
  6
CONTINUOUS
 62
     7
 10
-537.5
 20
-420.0
 30
0.0
  0
VERTEX
  5
39E
  8
DATA
  6
CONTINUOUS
 62
     7
 10
-537.5
 20
-440.0
 30
0.0
  0
VERTEX
  5
39F
  8
DATA
  6
CONTINUOUS
 62
     7
 10
-562.5
 20
-440.0
 30
0.0
  0
SEQEND
  5
3B0
  8
DATA
  6
CONTINUOUS
 62
     7
  0
ARC
  5
1D1
  8
DATA
  6
CONTINUOUS
 62
     7
 10
-394.7184097055131
 20
-539.1221048131742
 30
0.0
 40
4.999999999999969
 50
272.454989609188
 51
355.8204301265703
  0
ARC
  5
1D2
  8
DATA
  6
CONTINUOUS
 62
     7
 10
-394.7795599591755
 20
-539.9588977580291
 30
0.0
 40
5.0
 50
270.0
 51
355.8204301265703
  0
LINE
  5
1D3
  8
DATA
  6
CONTINUOUS
 62
     7
 10
-457.1479481999348
 20
-550.0
 30
0.0
 11
-391.0870668677447
 21
-545.3385647973764
 31
0.0
  0
ARC
  5
1D4
  8
DATA
  6
CONTINUOUS
 62
     7
 10
-391.3665130417317
 20
-541.3483380073501
 30
0.0
 40
3.999999999999974
 50
274.0060347759718
 51
355.6378221485121
  0
LINE
  5
1D5
  8
DATA
  6
CONTINUOUS
 62
     7
 10
-457.1479481999348
 20
-546.8032954641975
 30
0.0
 11
-550.0
 21
-540.3685995744406
 31
0.0
  0
LINE
  5
1D6
  8
DATA
  6
CONTINUOUS
 62
     7
 10
-457.1479481999348
 20
-547.7612151628701
 30
0.0
 11
-550.0
 21
-541.3265192731133
 31
0.0
  0
LINE
  5
1D7
  8
DATA
  6
CONTINUOUS
 62
     7
 10
-642.852051800065
 20
-550.0
 30
0.0
 11
-550.0
 21
-543.565304110243
 31
0.0
  0
LINE
  5
1D8
  8
DATA
  6
CONTINUOUS
 62
     7
 10
-702.7999201200839
 20
-544.9588977580291
 30
0.0
 11
-642.852051800065
 21
-547.7612151628701
 31
0.0
  0
LINE
  5
1D9
  8
DATA
  6
CONTINUOUS
 62
     7
 10
-702.7999201200839
 20
-544.9588977580291
 30
0.0
 11
-705.2235903861506
 21
-544.9200279309359
 31
0.0
  0
LINE
  5
1DA
  8
DATA
  6
CONTINUOUS
 62
     7
 10
-705.501996163654
 20
-544.0785127598751
 30
0.0
 11
-642.852051800065
 21
-546.8032954641975
 31
0.0
  0
ARC
  5
1DB
  8
DATA
  6
CONTINUOUS
 62
     7
 10
-705.284740639813
 20
-539.083234986081
 30
0.0
 40
5.000000000000036
 50
184.1795698734296
 51
267.509651032817
  0
ARC
  5
1DC
  8
DATA
  6
CONTINUOUS
 62
     7
 10
-705.2235903861506
 20
-539.9200279309359
 30
0.0
 40
4.999999999999809
 50
184.1795698734298
 51
270.0
  0
LINE
  5
1DD
  8
DATA
  6
CONTINUOUS
 62
     7
 10
-642.852051800065
 20
-550.0
 30
0.0
 11
-708.9160834775812
 21
-545.2996949702832
 31
0.0
  0
ARC
  5
1DE
  8
DATA
  6
CONTINUOUS
 62
     7
 10
-708.6366373035944
 20
-541.3094681802569
 30
0.0
 40
4.000000000000022
 50
184.362177851488
 51
265.9939652240315
  0
LINE
  5
1DF
  8
DATA
  6
CONTINUOUS
 62
     7
 10
-642.852051800065
 20
-546.8032954641975
 30
0.0
 11
-550.0
 21
-540.3685995744406
 31
0.0
  0
LINE
  5
1E0
  8
DATA
  6
CONTINUOUS
 62
     7
 10
-642.852051800065
 20
-547.7612151628701
 30
0.0
 11
-550.0
 21
-541.3265192731133
 31
0.0
  0
LINE
  5
1E1
  8
DATA
  6
CONTINUOUS
 62
     7
 10
-721.4780909787885
 20
-300.0621971691373
 30
0.0
 11
-590.9620312866168
 21
-294.0
 31
0.0
  0
ARC
  5
1E2
  8
DATA
  6
CONTINUOUS
 62
     7
 10
-720.303150345326
 20
-310.6974928635617
 30
0.0
 40
10.70000000000013
 50
96.30422097666563
 51
180.0
  0
LINE
  5
1E3
  8
DATA
  6
CONTINUOUS
 62
     7
 10
-378.5250593665376
 20
-300.1010669962305
 30
0.0
 11
-509.0379687133832
 21
-294.0
 31
0.0
  0
ARC
  5
1E4
  8
DATA
  6
CONTINUOUS
 62
     7
 10
-379.7000000000001
 20
-310.7363626906549
 30
0.0
 40
10.70000000000005
 50
0.0
 51
83.69577902333435
  0
TEXT
  5
1E5
  8
DATA
 62
     7
 10
-560.5833333333333
 20
-435.08
 30
0.0
 40
10.85894097222222
  1
JBL
 41
0.7
 11
-560.5833333333333
 21
-424.2210590277778
 31
0.0
 73
     3
  0
LINE
  5
1E6
  8
DATA
  6
CONTINUOUS
 62
     7
 10
-212.5000000000001
 20
-550.0
 30
0.0
 11
-212.5000000000001
 21
-294.0
 31
0.0
  0
LINE
  5
1E7
  8
DATA
  6
CONTINUOUS
 62
     7
 10
-220.55
 20
-550.0
 30
0.0
 11
-212.5000000000001
 21
-550.0
 31
0.0
  0
LINE
  5
1E8
  8
DATA
  6
CONTINUOUS
 62
     7
 10
-220.55
 20
-550.0
 30
0.0
 11
-220.55
 21
-321.0
 31
0.0
  0
LINE
  5
1E9
  8
DATA
  6
CONTINUOUS
 62
     7
 10
-324.0199333152266
 20
-294.0
 30
0.0
 11
-212.5000000000001
 21
-294.0
 31
0.0
  0
LINE
  5
1EA
  8
DATA
  6
CONTINUOUS
 62
     7
 10
-160.5000000000001
 20
-309.75
 30
0.0
 11
-160.5000000000001
 21
-505.0
 31
0.0
  0
LINE
  5
1EB
  8
DATA
  6
CONTINUOUS
 62
     7
 10
-337.5000000000001
 20
-323.0
 30
0.0
 11
-329.301801324177
 21
-417.0
 31
0.0
  0
LINE
  5
1EC
  8
DATA
  6
CONTINUOUS
 62
     7
 10
-327.0814558494747
 20
-443.0
 30
0.0
 11
-318.5955858343751
 21
-540.3685995744406
 31
0.0
  0
LINE
  5
1ED
  8
DATA
  6
CONTINUOUS
 62
     7
 10
-220.55
 20
-550.0
 30
0.0
 11
-305.8757317862183
 21
-543.565304110243
 31
0.0
  0
LINE
  5
1EE
  8
DATA
  6
CONTINUOUS
 62
     7
 10
-318.5955858343751
 20
-540.3685995744406
 30
0.0
 11
-220.55
 21
-547.7523162179709
 31
0.0
  0
LINE
  5
1EF
  8
DATA
  6
CONTINUOUS
 62
     7
 10
-160.5000000000001
 20
-354.5
 30
0.0
 11
-153.5000000000001
 21
-354.5
 31
0.0
  0
LINE
  5
1F0
  8
DATA
  6
CONTINUOUS
 62
     7
 10
-160.5000000000001
 20
-489.5
 30
0.0
 11
-153.5000000000001
 21
-489.5
 31
0.0
  0
LINE
  5
1F1
  8
DATA
  6
CONTINUOUS
 62
     7
 10
-153.5000000000001
 20
-489.5
 30
0.0
 11
-153.5000000000001
 21
-354.5
 31
0.0
  0
LINE
  5
1F2
  8
DATA
  6
CONTINUOUS
 62
     7
 10
-166.4238509921227
 20
-308.7500000000002
 30
0.0
 11
-161.5000000000001
 21
-308.75
 31
0.0
  0
ARC
  5
1F3
  8
DATA
  6
CONTINUOUS
 62
     7
 10
-237.0388845735905
 20
-528.712236492089
 30
0.0
 40
231.0191949823941
 50
72.20168002128965
 51
83.90253306837837
  0
LINE
  5
1F4
  8
DATA
  6
CONTINUOUS
 62
     7
 10
-193.5801965714789
 20
-500.8716806843202
 30
0.0
 11
-207.4748769214228
 21
-307.3815751231792
 31
0.0
  0
LINE
  5
1F5
  8
DATA
  6
CONTINUOUS
 62
     7
 10
-192.5000000000001
 20
-302.0270887402925
 30
0.0
 11
-202.4874588113833
 21
-302.0270887402925
 31
0.0
  0
ARC
  5
1F6
  8
DATA
  6
CONTINUOUS
 62
     7
 10
-202.4874588113833
 20
-307.0270887402926
 30
0.0
 40
5.000000000000114
 50
90.0
 51
184.0655254321825
  0
LINE
  5
1F7
  8
DATA
  6
CONTINUOUS
 62
     7
 10
-193.6738681020086
 20
-503.1177235129123
 30
0.0
 11
-198.7053446568949
 21
-533.4629299371812
 31
0.0
  0
ARC
  5
1F8
  8
DATA
  6
CONTINUOUS
 62
     7
 10
-203.5550327915574
 20
-501.5806534500937
 30
0.0
 40
9.999999999999938
 50
351.1581854398086
 51
4.065525432183961
  0
ARC
  5
1F9
  8
DATA
  6
CONTINUOUS
 62
     7
 10
-188.8241799673461
 20
-535.0
 30
0.0
 40
9.999999999999956
 50
171.1581854398079
 51
270.0
  0
LINE
  5
1FA
  8
DATA
  6
CONTINUOUS
 62
     7
 10
-160.5000000000001
 20
-505.0
 30
0.0
 11
-169.6757113432046
 21
-541.2866928248393
 31
0.0
  0
LINE
  5
1FB
  8
DATA
  6
CONTINUOUS
 62
     7
 10
-188.8241799673461
 20
-545.0
 30
0.0
 11
-170.4852587775497
 21
-542.0286691051351
 31
0.0
  0
LINE
  5
1FC
  8
DATA
  6
CONTINUOUS
 62
     7
 10
-160.0792445774121
 20
-530.1999999999999
 30
0.0
 11
-166.8722513089006
 21
-530.1999999999999
 31
0.0
  0
LINE
  5
1FD
  8
DATA
  6
CONTINUOUS
 62
     7
 10
-160.0792445774121
 20
-515.1999999999999
 30
0.0
 11
-163.0792445774121
 21
-515.1999999999999
 31
0.0
  0
LINE
  5
1FE
  8
DATA
  6
CONTINUOUS
 62
     7
 10
-160.0792445774121
 20
-515.1999999999999
 30
0.0
 11
-160.0792445774121
 21
-530.1999999999999
 31
0.0
  0
LINE
  5
1FF
  8
DATA
  6
CONTINUOUS
 62
     7
 10
-220.55
 20
-321.0
 30
0.0
 11
-337.5000000000001
 21
-321.0
 31
0.0
  0
LINE
  5
200
  8
DATA
  6
CONTINUOUS
 62
     7
 10
-227.5000000000001
 20
-294.0
 30
0.0
 11
-232.4832439905934
 21
-321.0
 31
0.0
  0
LINE
  5
201
  8
DATA
  6
CONTINUOUS
 62
     7
 10
-337.5000000000001
 20
-321.0
 30
0.0
 11
-328.7086771188452
 21
-297.2634282208819
 31
0.0
  0
LINE
  5
202
  8
DATA
  6
CONTINUOUS
 62
     7
 10
-230.5542275682683
 20
-549.2455480818493
 30
0.0
 11
-232.4832439905934
 21
-321.0
 31
0.0
  0
LINE
  5
203
  8
DATA
  6
CONTINUOUS
 62
     7
 10
-337.5000000000001
 20
-323.0
 30
0.0
 11
-220.55
 21
-323.0
 31
0.0
  0
LINE
  5
204
  8
DATA
  6
CONTINUOUS
 62
     7
 10
-337.5000000000001
 20
-323.0
 30
0.0
 11
-336.674977327052
 21
-321.0
 31
0.0
  0
LINE
  5
205
  8
DATA
  6
CONTINUOUS
 62
     7
 10
-188.8241799673461
 20
-545.0
 30
0.0
 11
-212.5000000000001
 21
-545.0
 31
0.0
  0
LINE
  5
206
  8
DATA
  6
CONTINUOUS
 62
     7
 10
-305.8757317862183
 20
-543.565304110243
 30
0.0
 11
-305.8757317862183
 21
-541.3265192731133
 31
0.0
  0
LINE
  5
207
  8
DATA
  6
CONTINUOUS
 62
     7
 10
-329.301801324177
 20
-417.0
 30
0.0
 11
-326.301801324177
 21
-417.0
 31
0.0
  0
LINE
  5
208
  8
DATA
  6
CONTINUOUS
 62
     7
 10
-327.0814558494747
 20
-443.0
 30
0.0
 11
-324.0814558494749
 21
-443.0
 31
0.0
  0
LINE
  5
209
  8
DATA
  6
CONTINUOUS
 62
     7
 10
-326.301801324177
 20
-417.0
 30
0.0
 11
-324.0814558494749
 21
-443.0
 31
0.0
  0
LINE
  5
20A
  8
DATA
  6
CONTINUOUS
 62
     7
 10
-328.0456076155575
 20
-420.0
 30
0.0
 11
-326.3376495580943
 21
-440.0
 31
0.0
  0
LINE
  5
20B
  8
DATA
  6
CONTINUOUS
 62
     7
 10
-328.0456076155575
 20
-420.0
 30
0.0
 11
-326.0456076155575
 21
-420.0
 31
0.0
  0
LINE
  5
20C
  8
DATA
  6
CONTINUOUS
 62
     7
 10
-326.3376495580943
 20
-440.0
 30
0.0
 11
-324.3376495580943
 21
-440.0
 31
0.0
  0
ARC
  5
20D
  8
DATA
  6
CONTINUOUS
 62
     7
 10
-161.5000000000001
 20
-309.75
 30
0.0
 40
1.0
 50
0.0
 51
90.0
  0
ARC
  5
20E
  8
DATA
  6
CONTINUOUS
 62
     7
 10
-324.0199333152266
 20
-299.0
 30
0.0
 40
5.0
 50
90.0
 51
159.6768631703358
  0
ARC
  5
20F
  8
DATA
  6
CONTINUOUS
 62
     7
 10
1238.911363636335
 20
-422.0
 30
0.0
 40
1401.611363636335
 50
176.7893572167224
 51
183.2106427832776
  0
LINE
  5
210
  8
DATA
  6
CONTINUOUS
 62
     7
 10
-159.2086974532565
 20
-345.9855042445724
 30
0.0
 11
-158.4275212228625
 21
-347.2874646285627
 31
0.0
  0
LINE
  5
211
  8
DATA
  6
CONTINUOUS
 62
     7
 10
-160.5000000000001
 20
-345.5
 30
0.0
 11
-160.066190378969
 21
-345.5
 31
0.0
  0
LINE
  5
212
  8
DATA
  6
CONTINUOUS
 62
     7
 10
-160.5000000000001
 20
-353.5
 30
0.0
 11
-160.5000000000001
 21
-345.5
 31
0.0
  0
LINE
  5
213
  8
DATA
  6
CONTINUOUS
 62
     7
 10
-160.066190378969
 20
-353.5
 30
0.0
 11
-160.5000000000001
 21
-353.5
 31
0.0
  0
LINE
  5
214
  8
DATA
  6
CONTINUOUS
 62
     7
 10
-158.4275212228625
 20
-351.7125353714373
 30
0.0
 11
-159.2086974532565
 21
-353.0144957554276
 31
0.0
  0
LINE
  5
215
  8
DATA
  6
CONTINUOUS
 62
     7
 10
-158.0000000000001
 20
-348.8309518948453
 30
0.0
 11
-158.0000000000001
 21
-350.1690481051547
 31
0.0
  0
ARC
  5
216
  8
DATA
  6
CONTINUOUS
 62
     7
 10
-160.0661903789692
 20
-346.5000000000003
 30
0.0
 40
1.000000000000307
 50
30.96375653208805
 51
89.99999999998697
  0
ARC
  5
217
  8
DATA
  6
CONTINUOUS
 62
     7
 10
-160.9999999999998
 20
-348.830951894845
 30
0.0
 40
2.999999999999773
 50
359.9999999999957
 51
30.96375653207241
  0
ARC
  5
218
  8
DATA
  6
CONTINUOUS
 62
     7
 10
-160.0661903789692
 20
-352.4999999999997
 30
0.0
 40
1.000000000000341
 50
270.000000000013
 51
329.036243467912
  0
ARC
  5
219
  8
DATA
  6
CONTINUOUS
 62
     7
 10
-160.9999999999998
 20
-350.169048105155
 30
0.0
 40
2.999999999999634
 50
329.0362434679276
 51
0.0000000000043201
  0
LINE
  5
21A
  8
DATA
  6
CONTINUOUS
 62
     7
 10
-159.2086974532565
 20
-498.0144957554276
 30
0.0
 11
-158.4275212228625
 21
-496.7125353714373
 31
0.0
  0
LINE
  5
21B
  8
DATA
  6
CONTINUOUS
 62
     7
 10
-160.5000000000001
 20
-498.5
 30
0.0
 11
-160.066190378969
 21
-498.5
 31
0.0
  0
LINE
  5
21C
  8
DATA
  6
CONTINUOUS
 62
     7
 10
-160.066190378969
 20
-490.5
 30
0.0
 11
-160.5000000000001
 21
-490.5
 31
0.0
  0
LINE
  5
21D
  8
DATA
  6
CONTINUOUS
 62
     7
 10
-158.4275212228625
 20
-492.2874646285627
 30
0.0
 11
-159.2086974532565
 21
-490.9855042445724
 31
0.0
  0
LINE
  5
21E
  8
DATA
  6
CONTINUOUS
 62
     7
 10
-158.0000000000001
 20
-495.1690481051547
 30
0.0
 11
-158.0000000000001
 21
-493.8309518948453
 31
0.0
  0
ARC
  5
21F
  8
DATA
  6
CONTINUOUS
 62
     7
 10
-160.0661903789692
 20
-497.4999999999997
 30
0.0
 40
1.000000000000341
 50
270.000000000013
 51
329.036243467912
  0
ARC
  5
220
  8
DATA
  6
CONTINUOUS
 62
     7
 10
-160.9999999999998
 20
-495.169048105155
 30
0.0
 40
2.999999999999634
 50
329.0362434679276
 51
0.0000000000043201
  0
ARC
  5
221
  8
DATA
  6
CONTINUOUS
 62
     7
 10
-160.0661903789692
 20
-491.5000000000003
 30
0.0
 40
1.000000000000307
 50
30.96375653208805
 51
89.99999999998697
  0
ARC
  5
222
  8
DATA
  6
CONTINUOUS
 62
     7
 10
-160.9999999999998
 20
-493.830951894845
 30
0.0
 40
2.999999999999773
 50
359.9999999999957
 51
30.96375653207241
  0
LINE
  5
223
  8
DATA
  6
CONTINUOUS
 62
     7
 10
-159.2086974532565
 20
-418.4855042445724
 30
0.0
 11
-158.4275212228625
 21
-419.7874646285627
 31
0.0
  0
LINE
  5
224
  8
DATA
  6
CONTINUOUS
 62
     7
 10
-160.5000000000001
 20
-418.0
 30
0.0
 11
-160.066190378969
 21
-418.0
 31
0.0
  0
LINE
  5
225
  8
DATA
  6
CONTINUOUS
 62
     7
 10
-160.5000000000001
 20
-426.0
 30
0.0
 11
-160.5000000000001
 21
-418.0
 31
0.0
  0
LINE
  5
226
  8
DATA
  6
CONTINUOUS
 62
     7
 10
-160.066190378969
 20
-426.0
 30
0.0
 11
-160.5000000000001
 21
-426.0
 31
0.0
  0
LINE
  5
227
  8
DATA
  6
CONTINUOUS
 62
     7
 10
-158.4275212228625
 20
-424.2125353714373
 30
0.0
 11
-159.2086974532565
 21
-425.5144957554276
 31
0.0
  0
LINE
  5
228
  8
DATA
  6
CONTINUOUS
 62
     7
 10
-158.0000000000001
 20
-421.3309518948453
 30
0.0
 11
-158.0000000000001
 21
-422.6690481051547
 31
0.0
  0
ARC
  5
229
  8
DATA
  6
CONTINUOUS
 62
     7
 10
-160.0661903789692
 20
-419.0000000000003
 30
0.0
 40
1.000000000000307
 50
30.96375653208805
 51
89.99999999998697
  0
ARC
  5
22A
  8
DATA
  6
CONTINUOUS
 62
     7
 10
-160.9999999999998
 20
-421.330951894845
 30
0.0
 40
2.999999999999773
 50
359.9999999999957
 51
30.96375653207241
  0
ARC
  5
22B
  8
DATA
  6
CONTINUOUS
 62
     7
 10
-160.0661903789692
 20
-424.9999999999997
 30
0.0
 40
1.000000000000341
 50
270.000000000013
 51
329.036243467912
  0
ARC
  5
22C
  8
DATA
  6
CONTINUOUS
 62
     7
 10
-160.9999999999998
 20
-422.669048105155
 30
0.0
 40
2.999999999999634
 50
329.0362434679276
 51
0.0000000000043201
  0
ARC
  5
22D
  8
DATA
  6
CONTINUOUS
 62
     7
 10
-170.6451962865202
 20
-541.0415419637677
 30
0.0
 40
0.9999999999999276
 50
279.203269038517
 51
345.8092506789474
  0
LINE
  5
22E
  8
DATA
  6
CONTINUOUS
 62
     7
 10
-579.9500000000003
 20
-84.30000000000001
 30
0.0
 11
-520.0500000000002
 21
-84.30000000000001
 31
0.0
  0
LINE
  5
22F
  8
DATA
  6
CONTINUOUS
 62
     7
 10
-605.0500000000002
 20
-18.0
 30
0.0
 11
-540.7477270848676
 21
-18.0
 31
0.0
  0
LINE
  5
230
  8
DATA
  6
CONTINUOUS
 62
     7
 10
-521.2522729151328
 20
-18.0
 30
0.0
 11
-494.9500000000003
 21
-18.0
 31
0.0
  0
LINE
  5
231
  8
DATA
  6
CONTINUOUS
 62
     7
 10
-605.0500000000002
 20
-21.29999999999995
 30
0.0
 11
-588.25
 21
-21.29999999999995
 31
0.0
  0
LINE
  5
232
  8
DATA
  6
CONTINUOUS
 62
     7
 10
-511.7500000000001
 20
-21.29999999999995
 30
0.0
 11
-494.9500000000003
 21
-21.29999999999995
 31
0.0
  0
LINE
  5
233
  8
DATA
  6
CONTINUOUS
 62
     7
 10
-494.9500000000003
 20
-18.0
 30
0.0
 11
-494.9500000000003
 21
-21.29999999999995
 31
0.0
  0
LINE
  5
234
  8
DATA
  6
CONTINUOUS
 62
     7
 10
-605.0500000000002
 20
-21.29999999999995
 30
0.0
 11
-605.0500000000002
 21
-18.0
 31
0.0
  0
LINE
  5
235
  8
DATA
  6
CONTINUOUS
 62
     7
 10
-588.25
 20
-18.0
 30
0.0
 11
-588.25
 21
-76.0
 31
0.0
  0
LINE
  5
236
  8
DATA
  6
CONTINUOUS
 62
     7
 10
-511.7500000000001
 20
-18.0
 30
0.0
 11
-511.7500000000001
 21
-76.0
 31
0.0
  0
LINE
  5
237
  8
DATA
  6
CONTINUOUS
 62
     7
 10
-511.7500000000001
 20
-64.5
 30
0.0
 11
-588.25
 21
-64.5
 31
0.0
  0
LINE
  5
238
  8
DATA
  6
CONTINUOUS
 62
     7
 10
-511.7500000000001
 20
-71.5
 30
0.0
 11
-588.25
 21
-71.5
 31
0.0
  0
ARC
  5
239
  8
DATA
  6
CONTINUOUS
 62
     7
 10
-579.9500000000003
 20
-76.0
 30
0.0
 40
8.299999999999727
 50
180.0
 51
270.0
  0
ARC
  5
23A
  8
DATA
  6
CONTINUOUS
 62
     7
 10
-520.0500000000002
 20
-76.0
 30
0.0
 40
8.300000000000011
 50
270.0
 51
0.0
  0
ARC
  5
23B
  8
DATA
  6
CONTINUOUS
 62
     7
 10
-531.0
 20
-24.0
 30
0.0
 40
4.000000000000199
 50
209.5519238759524
 51
330.4480761240444
  0
LINE
  5
23C
  8
DATA
  6
CONTINUOUS
 62
     7
 10
-523.8620001653167
 20
-19.52036366642119
 30
0.0
 11
-527.5203636664214
 21
-25.97284844477173
 31
0.0
  0
LINE
  5
23D
  8
DATA
  6
CONTINUOUS
 62
     7
 10
-538.1379998346833
 20
-19.52036366642119
 30
0.0
 11
-534.479636333579
 21
-25.97284844477173
 31
0.0
  0
ARC
  5
23E
  8
DATA
  6
CONTINUOUS
 62
     7
 10
-540.7477270848676
 20
-21.0
 30
0.0
 40
3.000000000000156
 50
29.55192387595261
 51
90.0
  0
ARC
  5
23F
  8
DATA
  6
CONTINUOUS
 62
     7
 10
-521.2522729151328
 20
-21.0
 30
0.0
 40
3.0
 50
90.0
 51
150.4480761240431
  0
LINE
  5
240
  8
DATA
  6
CONTINUOUS
 62
     7
 10
130.049999999999
 20
-375.5517028906202
 30
0.0
 11
130.049999999999
 21
-472.3679534307757
 31
0.0
  0
LINE
  5
241
  8
DATA
  6
CONTINUOUS
 62
     7
 10
36.74999999999972
 20
-303.2098281606975
 30
0.0
 11
113.2499999999997
 21
-303.2098281606975
 31
0.0
  0
LINE
  5
242
  8
DATA
  6
CONTINUOUS
 62
     7
 10
19.94999999999953
 20
-470.4205080068069
 30
0.0
 11
19.94999999999953
 21
-377.499148314589
 31
0.0
  0
LINE
  5
243
  8
DATA
  6
CONTINUOUS
 62
     7
 10
113.2499999999997
 20
-544.709828160698
 30
0.0
 11
36.74999999999972
 21
-544.709828160698
 31
0.0
  0
LINE
  5
244
  8
DATA
  6
CONTINUOUS
 62
     7
 10
35.0169260076097
 20
-362.2056360707966
 30
0.0
 11
21.68307399238955
 21
-373.7140202505994
 31
0.0
  0
LINE
  5
245
  8
DATA
  6
CONTINUOUS
 62
     7
 10
115.0490780016768
 20
-360.7090598287626
 30
0.0
 11
128.2509219983219
 21
-371.7105964926332
 31
0.0
  0
LINE
  5
246
  8
DATA
  6
CONTINUOUS
 62
     7
 10
36.74999999999972
 20
-303.2098281606975
 30
0.0
 11
36.74999999999972
 21
-358.420508006807
 31
0.0
  0
LINE
  5
247
  8
DATA
  6
CONTINUOUS
 62
     7
 10
113.2499999999997
 20
-303.2098281606975
 30
0.0
 11
113.2499999999997
 21
-356.8679534307757
 31
0.0
  0
LINE
  5
248
  8
DATA
  6
CONTINUOUS
 62
     7
 10
101.9999999999997
 20
-539.909828160698
 30
0.0
 11
101.9999999999997
 21
-534.709828160698
 31
0.0
  0
LINE
  5
249
  8
DATA
  6
CONTINUOUS
 62
     7
 10
101.9999999999997
 20
-524.709828160698
 30
0.0
 11
101.9999999999997
 21
-323.209828160698
 31
0.0
  0
LINE
  5
24A
  8
DATA
  6
CONTINUOUS
 62
     7
 10
85.99999999999972
 20
-539.909828160698
 30
0.0
 11
85.99999999999972
 21
-534.709828160698
 31
0.0
  0
LINE
  5
24B
  8
DATA
  6
CONTINUOUS
 62
     7
 10
85.99999999999972
 20
-524.709828160698
 30
0.0
 11
85.99999999999972
 21
-323.209828160698
 31
0.0
  0
CIRCLE
  5
24C
  8
DATA
  6
CONTINUOUS
 62
     7
 10
31.99999999999972
 20
-380.959828160698
 30
0.0
 40
2.699999999999818
  0
ARC
  5
24D
  8
DATA
  6
CONTINUOUS
 62
     7
 10
31.74999999999972
 20
-358.4205080068069
 30
0.0
 40
5.00000000000005
 50
310.7973204962795
 51
359.9999999999987
  0
ARC
  5
24E
  8
DATA
  6
CONTINUOUS
 62
     7
 10
24.94999999999953
 20
-377.499148314589
 30
0.0
 40
4.999999999999964
 50
130.7973204962803
 51
180.0
  0
LINE
  5
24F
  8
DATA
  6
CONTINUOUS
 62
     7
 10
35.0169260076097
 20
-485.7140202505993
 30
0.0
 11
21.68307399238955
 21
-474.2056360707965
 31
0.0
  0
LINE
  5
250
  8
DATA
  6
CONTINUOUS
 62
     7
 10
36.74999999999972
 20
-544.709828160698
 30
0.0
 11
36.74999999999972
 21
-489.4991483145889
 31
0.0
  0
ARC
  5
251
  8
DATA
  6
CONTINUOUS
 62
     7
 10
31.74999999999972
 20
-489.499148314589
 30
0.0
 40
5.0
 50
0.0000000000013074
 51
49.2026795037205
  0
ARC
  5
252
  8
DATA
  6
CONTINUOUS
 62
     7
 10
24.94999999999953
 20
-470.4205080068068
 30
0.0
 40
5.0
 50
180.0000000000013
 51
229.2026795037205
  0
LINE
  5
253
  8
DATA
  6
CONTINUOUS
 62
     7
 10
36.74999999999972
 20
-306.5098281606975
 30
0.0
 11
113.2499999999997
 21
-306.5098281606975
 31
0.0
  0
LINE
  5
254
  8
DATA
  6
CONTINUOUS
 62
     7
 10
36.74999999999972
 20
-308.0098281606977
 30
0.0
 11
113.2499999999997
 21
-308.0098281606977
 31
0.0
  0
LINE
  5
255
  8
DATA
  6
CONTINUOUS
 62
     7
 10
36.74999999999972
 20
-541.409828160698
 30
0.0
 11
113.2499999999997
 21
-541.409828160698
 31
0.0
  0
LINE
  5
256
  8
DATA
  6
CONTINUOUS
 62
     7
 10
36.74999999999972
 20
-539.909828160698
 30
0.0
 11
113.2499999999997
 21
-539.909828160698
 31
0.0
  0
ARC
  5
257
  8
DATA
  6
CONTINUOUS
 62
     7
 10
118.2499999999997
 20
-356.8679534307757
 30
0.0
 40
5.0
 50
180.0
 51
230.1944289077306
  0
ARC
  5
258
  8
DATA
  6
CONTINUOUS
 62
     7
 10
125.049999999999
 20
-375.55170289062
 30
0.0
 40
5.0
 50
359.9999999999987
 51
50.19442890773065
  0
LINE
  5
259
  8
DATA
  6
CONTINUOUS
 62
     7
 10
115.0490780016768
 20
-487.2105964926333
 30
0.0
 11
128.2509219983219
 21
-476.2090598287627
 31
0.0
  0
LINE
  5
25A
  8
DATA
  6
CONTINUOUS
 62
     7
 10
113.2499999999997
 20
-544.709828160698
 30
0.0
 11
113.2499999999997
 21
-491.0517028906202
 31
0.0
  0
ARC
  5
25B
  8
DATA
  6
CONTINUOUS
 62
     7
 10
118.2499999999997
 20
-491.0517028906202
 30
0.0
 40
5.000000000000319
 50
129.8055710922694
 51
180.0
  0
ARC
  5
25C
  8
DATA
  6
CONTINUOUS
 62
     7
 10
125.049999999999
 20
-472.3679534307757
 30
0.0
 40
5.000000000000407
 50
309.8055710922686
 51
0.0
  0
POLYLINE
  5
25D
  8
DATA
  6
CONTINUOUS
 62
     7
 66
     1
 10
0.0
 20
0.0
 30
0.0
 70
     1
  0
VERTEX
  5
3A0
  8
DATA
  6
CONTINUOUS
 62
     7
 10
83.74999999999972
 20
-524.709828160698
 30
0.0
  0
VERTEX
  5
3A1
  8
DATA
  6
CONTINUOUS
 62
     7
 10
104.2499999999997
 20
-524.709828160698
 30
0.0
  0
VERTEX
  5
3A2
  8
DATA
  6
CONTINUOUS
 62
     7
 10
104.2499999999997
 20
-534.709828160698
 30
0.0
  0
VERTEX
  5
3A3
  8
DATA
  6
CONTINUOUS
 62
     7
 10
83.74999999999972
 20
-534.709828160698
 30
0.0
  0
SEQEND
  5
3B1
  8
DATA
  6
CONTINUOUS
 62
     7
  0
LINE
  5
264
  8
DATA
  6
CONTINUOUS
 62
     7
 10
101.9999999999997
 20
-308.0098281606977
 30
0.0
 11
101.9999999999997
 21
-313.209828160698
 31
0.0
  0
LINE
  5
265
  8
DATA
  6
CONTINUOUS
 62
     7
 10
85.99999999999972
 20
-308.0098281606977
 30
0.0
 11
85.99999999999972
 21
-313.209828160698
 31
0.0
  0
POLYLINE
  5
266
  8
DATA
  6
CONTINUOUS
 62
     7
 66
     1
 10
0.0
 20
0.0
 30
0.0
 70
     1
  0
VERTEX
  5
3A4
  8
DATA
  6
CONTINUOUS
 62
     7
 10
83.74999999999972
 20
-313.209828160698
 30
0.0
  0
VERTEX
  5
3A5
  8
DATA
  6
CONTINUOUS
 62
     7
 10
104.2499999999997
 20
-313.209828160698
 30
0.0
  0
VERTEX
  5
3A6
  8
DATA
  6
CONTINUOUS
 62
     7
 10
104.2499999999997
 20
-323.209828160698
 30
0.0
  0
VERTEX
  5
3A7
  8
DATA
  6
CONTINUOUS
 62
     7
 10
83.74999999999972
 20
-323.209828160698
 30
0.0
  0
SEQEND
  5
3B2
  8
DATA
  6
CONTINUOUS
 62
     7
  0
CIRCLE
  5
26D
  8
DATA
  6
CONTINUOUS
 62
     7
 10
117.9999999999997
 20
-380.959828160698
 30
0.0
 40
2.699999999999818
  0
CIRCLE
  5
26E
  8
DATA
  6
CONTINUOUS
 62
     7
 10
31.99999999999972
 20
-466.959828160698
 30
0.0
 40
2.699999999999818
  0
CIRCLE
  5
26F
  8
DATA
  6
CONTINUOUS
 62
     7
 10
117.9999999999997
 20
-466.959828160698
 30
0.0
 40
2.699999999999818
  0
CIRCLE
  5
270
  8
DATA
  6
CONTINUOUS
 62
     7
 10
74.99999999999972
 20
-353.959828160698
 30
0.0
 40
2.699999999999818
  0
CIRCLE
  5
271
  8
DATA
  6
CONTINUOUS
 62
     7
 10
74.99999999999972
 20
-493.959828160698
 30
0.0
 40
2.699999999999818
  0
CIRCLE
  5
272
  8
DATA
  6
CONTINUOUS
 62
     7
 10
74.99999999999972
 20
-333.959828160698
 30
0.0
 40
2.699999999999818
  0
CIRCLE
  5
273
  8
DATA
  6
CONTINUOUS
 62
     7
 10
74.99999999999972
 20
-513.959828160698
 30
0.0
 40
2.699999999999818
  0
LINE
  5
274
  8
DATA
  6
STYLE_06
 62
     7
 10
22.49999999999972
 20
-380.959828160698
 30
0.0
 11
127.4999999999997
 21
-380.959828160698
 31
0.0
  0
LINE
  5
275
  8
DATA
  6
STYLE_06
 62
     7
 10
22.49999999999972
 20
-466.959828160698
 30
0.0
 11
127.4999999999997
 21
-466.959828160698
 31
0.0
  0
LINE
  5
276
  8
DATA
  6
STYLE_06
 62
     7
 10
31.99999999999972
 20
-476.459828160698
 30
0.0
 11
31.99999999999972
 21
-371.459828160698
 31
0.0
  0
LINE
  5
277
  8
DATA
  6
STYLE_06
 62
     7
 10
117.9999999999997
 20
-476.459828160698
 30
0.0
 11
117.9999999999997
 21
-371.459828160698
 31
0.0
  0
LINE
  5
278
  8
DATA
  6
CONTINUOUS
 62
     7
 10
-137.5000000000001
 20
-538.7098281606982
 30
0.0
 11
-137.5000000000001
 21
-309.2098281606977
 31
0.0
  0
LINE
  5
279
  8
DATA
  6
CONTINUOUS
 62
     7
 10
-184.0000000000001
 20
-544.7098281606982
 30
0.0
 11
-143.5000000000001
 21
-544.7098281606982
 31
0.0
  0
LINE
  5
27A
  8
DATA
  6
CONTINUOUS
 62
     7
 10
-169.7154838162656
 20
-541.4098281606982
 30
0.0
 11
-143.5000000000001
 21
-541.4098281606982
 31
0.0
  0
LINE
  5
27B
  8
DATA
  6
CONTINUOUS
 62
     7
 10
-147.5000000000001
 20
-524.7098281606982
 30
0.0
 11
-147.5000000000001
 21
-323.2098281606982
 31
0.0
  0
LINE
  5
27C
  8
DATA
  6
CONTINUOUS
 62
     7
 10
-184.0000000000001
 20
-303.2098281606977
 30
0.0
 11
-143.5000000000001
 21
-303.2098281606977
 31
0.0
  0
LINE
  5
27D
  8
DATA
  6
CONTINUOUS
 62
     7
 10
-173.8252928227419
 20
-306.5098281606977
 30
0.0
 11
-143.5000000000001
 21
-306.5098281606977
 31
0.0
  0
ARC
  5
27E
  8
DATA
  6
CONTINUOUS
 62
     7
 10
-187.5000000000001
 20
-299.8764948273645
 30
0.0
 40
4.833333333333311
 50
307.1689468595173
 51
316.397181027297
  0
LINE
  5
27F
  8
DATA
  6
CONTINUOUS
 62
     7
 10
-140.8000000000002
 20
-538.7098281606982
 30
0.0
 11
-140.8000000000002
 21
-309.2098281606977
 31
0.0
  0
ARC
  5
280
  8
DATA
  6
CONTINUOUS
 62
     7
 10
-143.5000000000001
 20
-309.2098281606977
 30
0.0
 40
6.0
 50
0.0
 51
90.0
  0
ARC
  5
281
  8
DATA
  6
CONTINUOUS
 62
     7
 10
-143.5000000000001
 20
-538.7098281606982
 30
0.0
 40
6.0
 50
270.0
 51
0.0
  0
ARC
  5
282
  8
DATA
  6
CONTINUOUS
 62
     7
 10
-143.5000000000001
 20
-538.7098281606982
 30
0.0
 40
2.700000000000045
 50
270.0
 51
0.0
  0
ARC
  5
283
  8
DATA
  6
CONTINUOUS
 62
     7
 10
-143.5000000000001
 20
-309.2098281606977
 30
0.0
 40
2.699999999999818
 50
0.0
 51
90.0
  0
LINE
  5
284
  8
DATA
  6
CONTINUOUS
 62
     7
 10
-140.8000000000002
 20
-534.7098281606982
 30
0.0
 11
-147.5000000000001
 21
-534.7098281606982
 31
0.0
  0
LINE
  5
285
  8
DATA
  6
CONTINUOUS
 62
     7
 10
-147.5000000000001
 20
-524.7098281606982
 30
0.0
 11
-140.8000000000002
 21
-524.7098281606982
 31
0.0
  0
LINE
  5
286
  8
DATA
  6
CONTINUOUS
 62
     7
 10
-140.8000000000002
 20
-323.2098281606982
 30
0.0
 11
-147.5000000000001
 21
-323.2098281606982
 31
0.0
  0
LINE
  5
287
  8
DATA
  6
CONTINUOUS
 62
     7
 10
-147.5000000000001
 20
-313.2098281606982
 30
0.0
 11
-140.8000000000002
 21
-313.2098281606982
 31
0.0
  0
LINE
  5
288
  8
DATA
  6
CONTINUOUS
 62
     7
 10
-147.5000000000001
 20
-313.2098281606982
 30
0.0
 11
-147.5000000000001
 21
-306.5098281606977
 31
0.0
  0
LINE
  5
289
  8
DATA
  6
CONTINUOUS
 62
     7
 10
-147.5000000000001
 20
-534.7098281606982
 30
0.0
 11
-147.5000000000001
 21
-541.4098281606982
 31
0.0
  0
LINE
  5
28A
  8
DATA
  6
CONTINUOUS
 62
     7
 10
-140.8000000000002
 20
-373.2098281606981
 30
0.0
 11
-137.5000000000001
 21
-373.2098281606981
 31
0.0
  0
LINE
  5
28B
  8
DATA
  6
CONTINUOUS
 62
     7
 10
-140.8000000000002
 20
-359.2098281606983
 30
0.0
 11
-137.5000000000001
 21
-359.2098281606983
 31
0.0
  0
LINE
  5
28C
  8
DATA
  6
CONTINUOUS
 62
     7
 10
-140.8000000000002
 20
-474.7098281606983
 30
0.0
 11
-137.5000000000001
 21
-474.7098281606983
 31
0.0
  0
LINE
  5
28D
  8
DATA
  6
CONTINUOUS
 62
     7
 10
-140.8000000000002
 20
-488.7098281606981
 30
0.0
 11
-137.5000000000001
 21
-488.7098281606981
 31
0.0
  0
LINE
  5
28E
  8
DATA
  6
CONTINUOUS
 62
     7
 10
33.99999999999972
 20
-550.0
 30
0.0
 11
115.9999999999997
 21
-550.0
 31
0.0
  0
LINE
  5
28F
  8
DATA
  6
CONTINUOUS
 62
     7
 10
-17.85205180006534
 20
-550.0
 30
0.0
 11
33.99999999999972
 21
-550.0
 31
0.0
  0
LINE
  5
290
  8
DATA
  6
CONTINUOUS
 62
     7
 10
-17.85205180006534
 20
-547.76121516287
 30
0.0
 11
33.99999999999972
 21
-547.0
 31
0.0
  0
LINE
  5
291
  8
DATA
  6
CONTINUOUS
 62
     7
 10
33.99999999999972
 20
-547.0
 30
0.0
 11
115.9999999999997
 21
-547.0
 31
0.0
  0
LINE
  5
292
  8
DATA
  6
CONTINUOUS
 62
     7
 10
-60.99282258487557
 20
-542.0
 30
0.0
 11
35.49999999999972
 21
-542.0
 31
0.0
  0
LINE
  5
293
  8
DATA
  6
CONTINUOUS
 62
     7
 10
36.49999999999972
 20
-541.0
 30
0.0
 11
36.74999999999972
 21
-541.0
 31
0.0
  0
LINE
  5
294
  8
DATA
  6
CONTINUOUS
 62
     7
 10
113.2499999999997
 20
-541.0
 30
0.0
 11
113.4999999999997
 21
-541.0
 31
0.0
  0
LINE
  5
295
  8
DATA
  6
CONTINUOUS
 62
     7
 10
35.49999999999972
 20
-542.5
 30
0.0
 11
35.49999999999972
 21
-542.0
 31
0.0
  0
LINE
  5
296
  8
DATA
  6
CONTINUOUS
 62
     7
 10
-95.68615883057356
 20
-325.6630896868905
 30
0.0
 11
-80.93963315656248
 21
-523.4576515417771
 31
0.0
  0
ARC
  5
297
  8
DATA
  6
CONTINUOUS
 62
     7
 10
-60.99282258487602
 20
-522.0
 30
0.0
 40
19.99999999999969
 50
184.1795698734298
 51
270.0000000000014
  0
LINE
  5
298
  8
DATA
  6
CONTINUOUS
 62
     7
 10
167.8520518000648
 20
-550.0
 30
0.0
 11
115.9999999999997
 21
-550.0
 31
0.0
  0
LINE
  5
299
  8
DATA
  6
CONTINUOUS
 62
     7
 10
167.8520518000648
 20
-547.76121516287
 30
0.0
 11
115.9999999999997
 21
-547.0
 31
0.0
  0
LINE
  5
29A
  8
DATA
  6
CONTINUOUS
 62
     7
 10
210.9928225848751
 20
-542.0
 30
0.0
 11
114.4999999999997
 21
-542.0
 31
0.0
  0
LINE
  5
29B
  8
DATA
  6
CONTINUOUS
 62
     7
 10
114.4999999999997
 20
-542.5
 30
0.0
 11
114.4999999999997
 21
-542.0
 31
0.0
  0
ARC
  5
29C
  8
DATA
  6
CONTINUOUS
 62
     7
 10
210.9928225848751
 20
-522.0
 30
0.0
 40
20.0
 50
270.0
 51
355.8204301265703
  0
LINE
  5
29D
  8
DATA
  6
CONTINUOUS
 62
     7
 10
245.686158830573
 20
-325.6630896868908
 30
0.0
 11
230.939633156562
 21
-523.4576515417771
 31
0.0
  0
LINE
  5
29E
  8
DATA
  6
CONTINUOUS
 62
     7
 10
216.9175407058453
 20
-303.766476656748
 30
0.0
 11
194.9999999999998
 21
-308.5461742716782
 31
0.0
  0
LINE
  5
29F
  8
DATA
  6
CONTINUOUS
 62
     7
 10
33.99999999999972
 20
-294.0
 30
0.0
 11
115.9999999999997
 21
-294.0
 31
0.0
  0
LINE
  5
2A0
  8
DATA
  6
CONTINUOUS
 62
     7
 10
33.99999999999972
 20
-297.0
 30
0.0
 11
115.9999999999997
 21
-297.0
 31
0.0
  0
ARC
  5
2A1
  8
DATA
  6
CONTINUOUS
 62
     7
 10
36.99999999999972
 20
-542.5
 30
0.0
 40
1.5
 50
180.0
 51
260.4059317731395
  0
ARC
  5
2A2
  8
DATA
  6
CONTINUOUS
 62
     7
 10
112.9999999999997
 20
-542.5
 30
0.0
 40
1.49999999999999
 50
279.5940682268605
 51
0.0
  0
ARC
  5
2A3
  8
DATA
  6
CONTINUOUS
 62
     7
 10
36.49999999999972
 20
-542.0
 30
0.0
 40
1.0
 50
90.0
 51
180.0
  0
ARC
  5
2A4
  8
DATA
  6
CONTINUOUS
 62
     7
 10
113.4999999999997
 20
-542.0
 30
0.0
 40
1.0
 50
0.0
 51
90.0
  0
LINE
  5
2A5
  8
DATA
  6
CONTINUOUS
 62
     7
 10
-60.99282258487557
 20
-542.0
 30
0.0
 11
33.99999999999972
 21
-545.0
 31
0.0
  0
LINE
  5
2A6
  8
DATA
  6
CONTINUOUS
 62
     7
 10
115.9999999999997
 20
-545.0
 30
0.0
 11
210.9928225848751
 21
-542.0
 31
0.0
  0
LINE
  5
2A7
  8
DATA
  6
CONTINUOUS
 62
     7
 10
33.99999999999972
 20
-545.0
 30
0.0
 11
115.9999999999997
 21
-545.0
 31
0.0
  0
LINE
  5
2A8
  8
DATA
  6
CONTINUOUS
 62
     7
 10
33.99999999999972
 20
-299.0
 30
0.0
 11
115.9999999999997
 21
-299.0
 31
0.0
  0
LINE
  5
2A9
  8
DATA
  6
CONTINUOUS
 62
     7
 10
36.49999999999972
 20
-310.0
 30
0.0
 11
36.74999999999972
 21
-310.0
 31
0.0
  0
LINE
  5
2AA
  8
DATA
  6
CONTINUOUS
 62
     7
 10
113.2499999999997
 20
-310.0
 30
0.0
 11
113.4999999999997
 21
-310.0
 31
0.0
  0
LINE
  5
2AB
  8
DATA
  6
CONTINUOUS
 62
     7
 10
35.49999999999972
 20
-304.5
 30
0.0
 11
35.49999999999972
 21
-309.0
 31
0.0
  0
LINE
  5
2AC
  8
DATA
  6
CONTINUOUS
 62
     7
 10
114.4999999999997
 20
-304.5
 30
0.0
 11
114.4999999999997
 21
-309.0
 31
0.0
  0
ARC
  5
2AD
  8
DATA
  6
CONTINUOUS
 62
     7
 10
36.49999999999972
 20
-309.0
 30
0.0
 40
1.0
 50
180.0
 51
270.0
  0
ARC
  5
2AE
  8
DATA
  6
CONTINUOUS
 62
     7
 10
113.4999999999997
 20
-309.0
 30
0.0
 40
1.0
 50
270.0
 51
0.0
  0
LINE
  5
2AF
  8
DATA
  6
CONTINUOUS
 62
     7
 10
-45.00000000000028
 20
-308.5461742716782
 30
0.0
 11
-45.00000000000028
 21
-542.5050746619488
 31
0.0
  0
LINE
  5
2B0
  8
DATA
  6
CONTINUOUS
 62
     7
 10
194.9999999999998
 20
-308.5461742716782
 30
0.0
 11
194.9999999999998
 21
-542.5050746619488
 31
0.0
  0
LINE
  5
2B1
  8
DATA
  6
CONTINUOUS
 62
     7
 10
190.4898971292612
 20
-308.75
 30
0.0
 11
114.4999999999997
 21
-308.75
 31
0.0
  0
LINE
  5
2B2
  8
DATA
  6
CONTINUOUS
 62
     7
 10
35.49999999999972
 20
-308.75
 30
0.0
 11
-40.48989712926169
 21
-308.75
 31
0.0
  0
LINE
  5
2B3
  8
DATA
  6
CONTINUOUS
 62
     7
 10
36.99999999999972
 20
-303.0
 30
0.0
 11
112.9999999999997
 21
-303.0
 31
0.0
  0
ARC
  5
2B4
  8
DATA
  6
CONTINUOUS
 62
     7
 10
112.9999999999997
 20
-304.5
 30
0.0
 40
1.5
 50
0.0
 51
90.0
  0
ARC
  5
2B5
  8
DATA
  6
CONTINUOUS
 62
     7
 10
36.99999999999972
 20
-304.5
 30
0.0
 40
1.5
 50
90.0
 51
180.0
  0
ARC
  5
2B6
  8
DATA
  6
CONTINUOUS
 62
     7
 10
74.99999999999926
 20
-421.9999999999997
 30
0.0
 40
67.49999999999952
 50
144.6423310520709
 51
215.3576689479296
  0
ARC
  5
2B7
  8
DATA
  6
CONTINUOUS
 62
     7
 10
74.99999999999926
 20
-421.9999999999997
 30
0.0
 40
67.49999999999952
 50
324.6423310520709
 51
35.35766894792932
  0
LINE
  5
2B8
  8
DATA
  6
CONTINUOUS
 62
     7
 10
33.99999999999972
 20
-547.0
 30
0.0
 11
115.9999999999997
 21
-547.0
 31
0.0
  0
CIRCLE
  5
2B9
  8
DATA
  6
CONTINUOUS
 62
     7
 10
-10.00000000000028
 20
-483.0
 30
0.0
 40
3.5
  0
LINE
  5
2BA
  8
DATA
  6
CONTINUOUS
 62
     7
 10
-4.500000000000284
 20
-492.5262794416287
 30
0.0
 11
-7.749999999983913
 21
-486.8971143170584
 31
0.0
  0
LINE
  5
2BB
  8
DATA
  6
CONTINUOUS
 62
     7
 10
-12.24999999999983
 20
-479.1028856829705
 30
0.0
 11
-15.50000000000028
 21
-473.473720558371
 31
0.0
  0
LINE
  5
2BC
  8
DATA
  6
CONTINUOUS
 62
     7
 10
-0.4737205583713262
 20
-488.5
 30
0.0
 11
-6.102885682969657
 21
-485.2500000000002
 31
0.0
  0
LINE
  5
2BD
  8
DATA
  6
CONTINUOUS
 62
     7
 10
-13.89711431701909
 20
-480.7500000000064
 30
0.0
 11
-19.52627944162924
 21
-477.5
 31
0.0
  0
LINE
  5
2BE
  8
DATA
  6
CONTINUOUS
 62
     7
 10
0.9999999999997158
 20
-483.0
 30
0.0
 11
-5.499999999991644
 21
-483.0
 31
0.0
  0
LINE
  5
2BF
  8
DATA
  6
CONTINUOUS
 62
     7
 10
-14.50000000000801
 20
-483.0
 30
0.0
 11
-21.00000000000028
 21
-483.0
 31
0.0
  0
LINE
  5
2C0
  8
DATA
  6
CONTINUOUS
 62
     7
 10
-0.4737205583713262
 20
-477.5000000000002
 30
0.0
 11
-6.102885682959197
 21
-480.7499999999941
 31
0.0
  0
LINE
  5
2C1
  8
DATA
  6
CONTINUOUS
 62
     7
 10
-13.89711431704046
 20
-485.2500000000061
 30
0.0
 11
-19.52627944162879
 21
-488.5000000000002
 31
0.0
  0
LINE
  5
2C2
  8
DATA
  6
CONTINUOUS
 62
     7
 10
-4.499999999999829
 20
-473.4737205583713
 30
0.0
 11
-7.749999999999829
 21
-479.1028856829701
 31
0.0
  0
LINE
  5
2C3
  8
DATA
  6
CONTINUOUS
 62
     7
 10
-12.24999999996754
 20
-486.897114316974
 30
0.0
 11
-15.49999999999983
 21
-492.526279441629
 31
0.0
  0
LINE
  5
2C4
  8
DATA
  6
CONTINUOUS
 62
     7
 10
-19.52627944162879
 20
-488.5000000000002
 30
0.0
 11
-21.00000000000028
 21
-488.5000000000002
 31
0.0
  0
LINE
  5
2C5
  8
DATA
  6
CONTINUOUS
 62
     7
 10
-15.49999999999983
 20
-492.526279441629
 30
0.0
 11
-21.00000000000028
 21
-492.526279441629
 31
0.0
  0
LINE
  5
2C6
  8
DATA
  6
CONTINUOUS
 62
     7
 10
-19.52627944162924
 20
-477.5
 30
0.0
 11
-21.00000000000028
 21
-477.5
 31
0.0
  0
LINE
  5
2C7
  8
DATA
  6
CONTINUOUS
 62
     7
 10
-15.50000000000028
 20
-473.473720558371
 30
0.0
 11
-21.00000000000028
 21
-473.473720558371
 31
0.0
  0
LINE
  5
2C8
  8
DATA
  6
CONTINUOUS
 62
     7
 10
-0.473720558371781
 20
-488.5000000000002
 30
0.0
 11
0.9999999999997158
 21
-488.5000000000002
 31
0.0
  0
LINE
  5
2C9
  8
DATA
  6
CONTINUOUS
 62
     7
 10
-4.500000000000739
 20
-492.526279441629
 30
0.0
 11
0.9999999999997158
 21
-492.526279441629
 31
0.0
  0
LINE
  5
2CA
  8
DATA
  6
CONTINUOUS
 62
     7
 10
-0.473720558371781
 20
-477.5
 30
0.0
 11
0.9999999999997158
 21
-477.5
 31
0.0
  0
LINE
  5
2CB
  8
DATA
  6
CONTINUOUS
 62
     7
 10
-4.500000000000284
 20
-473.473720558371
 30
0.0
 11
0.9999999999997158
 21
-473.473720558371
 31
0.0
  0
CIRCLE
  5
2CC
  8
DATA
  6
CONTINUOUS
 62
     7
 10
-10.00000000000028
 20
-483.0
 30
0.0
 40
3.0
  0
ARC
  5
2CD
  8
DATA
  6
CONTINUOUS
 62
     7
 10
-40.48989712926169
 20
-258.75
 30
0.0
 40
49.99999999999989
 50
264.8247685916538
 51
270.0
  0
ARC
  5
2CE
  8
DATA
  6
CONTINUOUS
 62
     7
 10
75.00000000000017
 20
-421.9999999999995
 30
0.0
 40
77.49999999999942
 50
119.5740748141975
 51
240.4251334332954
  0
ARC
  5
2CF
  8
DATA
  6
CONTINUOUS
 62
     7
 10
75.00000000000017
 20
-421.9999999999995
 30
0.0
 40
77.49999999999937
 50
299.8766597486518
 51
60.42592518580323
  0
ARC
  5
2D0
  8
DATA
  6
CONTINUOUS
 62
     7
 10
75.00000000000108
 20
-421.9999999999989
 30
0.0
 40
78.49999999999852
 50
119.1607230883616
 51
240.8392769116384
  0
ARC
  5
2D1
  8
DATA
  6
CONTINUOUS
 62
     7
 10
75.00000000000108
 20
-421.9999999999989
 30
0.0
 40
78.49999999999858
 50
299.1830379357601
 51
60.83927691164067
  0
LINE
  5
2D2
  8
DATA
  6
CONTINUOUS
 62
     7
 10
167.8520518000648
 20
-550.0
 30
0.0
 11
233.9129331322549
 21
-545.3385647973764
 31
0.0
  0
ARC
  5
2D3
  8
DATA
  6
CONTINUOUS
 62
     7
 10
233.6334869582681
 20
-541.3483380073501
 30
0.0
 40
3.999999999999958
 50
274.0060347759685
 51
355.6378221485137
  0
LINE
  5
2D4
  8
DATA
  6
CONTINUOUS
 62
     7
 10
230.7457828800946
 20
-542.9420191388108
 30
0.0
 11
167.8520518000648
 21
-547.76121516287
 31
0.0
  0
ARC
  5
2D5
  8
DATA
  6
CONTINUOUS
 62
     7
 10
230.3667760904634
 20
-537.956404447179
 30
0.0
 40
5.000000000000117
 50
274.3472678099362
 51
355.8204301265689
  0
LINE
  5
2D6
  8
DATA
  6
CONTINUOUS
 62
     7
 10
-17.85205180006534
 20
-550.0
 30
0.0
 11
-83.91293313225543
 21
-545.3385647973764
 31
0.0
  0
ARC
  5
2D7
  8
DATA
  6
CONTINUOUS
 62
     7
 10
-83.63348695826863
 20
-541.3483380073501
 30
0.0
 40
4.000000000000013
 50
184.3621778514863
 51
265.9939652240315
  0
LINE
  5
2D8
  8
DATA
  6
CONTINUOUS
 62
     7
 10
-80.74578288009508
 20
-542.9420191388108
 30
0.0
 11
-17.85205180006534
 21
-547.76121516287
 31
0.0
  0
ARC
  5
2D9
  8
DATA
  6
CONTINUOUS
 62
     7
 10
-80.36677609046347
 20
-537.956404447179
 30
0.0
 40
5.000000000000271
 50
184.1795698734308
 51
265.6527321900587
  0
LINE
  5
2DA
  8
DATA
  6
CONTINUOUS
 62
     7
 10
-76.67869023346276
 20
-304.2275094072588
 30
0.0
 11
33.99999999999972
 21
-299.0
 31
0.0
  0
ARC
  5
2DB
  8
DATA
  6
CONTINUOUS
 62
     7
 10
-75.7393482588871
 20
-324.2054381451135
 30
0.0
 40
19.99999999999996
 50
92.6920068724971
 51
184.1795698734297
  0
LINE
  5
2DC
  8
DATA
  6
CONTINUOUS
 62
     7
 10
114.4999999999997
 20
-308.75
 30
0.0
 11
190.4898971292612
 21
-308.75
 31
0.0
  0
ARC
  5
2DD
  8
DATA
  6
CONTINUOUS
 62
     7
 10
190.4898971292612
 20
-258.75
 30
0.0
 40
50.0
 50
270.0
 51
275.1752314083462
  0
LINE
  5
2DE
  8
DATA
  6
CONTINUOUS
 62
     7
 10
226.6786902334622
 20
-304.2275094072588
 30
0.0
 11
115.9999999999997
 21
-299.0
 31
0.0
  0
ARC
  5
2DF
  8
DATA
  6
CONTINUOUS
 62
     7
 10
225.7393482588866
 20
-324.2054381451135
 30
0.0
 40
19.99999999999971
 50
355.8204301265696
 51
87.30799312750293
  0
LINE
  5
2E0
  8
DATA
  6
CONTINUOUS
 62
     7
 10
-106.0000000000003
 20
-310.7363626906549
 30
0.0
 11
-87.62189967358364
 21
-541.6525813512603
 31
0.0
  0
LINE
  5
2E1
  8
DATA
  6
CONTINUOUS
 62
     7
 10
-102.0127626613592
 20
-314.3516688445613
 30
0.0
 11
-85.35347873338543
 21
-538.3208173326234
 31
0.0
  0
LINE
  5
2E2
  8
DATA
  6
CONTINUOUS
 62
     7
 10
-96.4749406334625
 20
-300.1010669962304
 30
0.0
 11
34.0379687133829
 21
-294.0
 31
0.0
  0
ARC
  5
2E3
  8
DATA
  6
CONTINUOUS
 62
     7
 10
-95.30000000000047
 20
-310.7363626906549
 30
0.0
 40
10.70000000000019
 50
96.30422097666316
 51
180.0
  0
LINE
  5
2E4
  8
DATA
  6
CONTINUOUS
 62
     7
 10
-91.83896191360901
 20
-302.8834085489125
 30
0.0
 11
33.99999999999972
 21
-297.0
 31
0.0
  0
ARC
  5
2E5
  8
DATA
  6
CONTINUOUS
 62
     7
 10
-91.34121900550673
 20
-313.5718252697106
 30
0.0
 40
10.70000000000018
 50
92.66624890608884
 51
184.1795698734295
  0
LINE
  5
2E6
  8
DATA
  6
CONTINUOUS
 62
     7
 10
255.9999999999998
 20
-310.7363626906549
 30
0.0
 11
237.6218996735831
 21
-541.6525813512603
 31
0.0
  0
LINE
  5
2E7
  8
DATA
  6
CONTINUOUS
 62
     7
 10
252.0127626613587
 20
-314.3516688445613
 30
0.0
 11
235.3534787333849
 21
-538.3208173326234
 31
0.0
  0
LINE
  5
2E8
  8
DATA
  6
CONTINUOUS
 62
     7
 10
246.474940633462
 20
-300.1010669962304
 30
0.0
 11
115.9620312866165
 21
-294.0
 31
0.0
  0
ARC
  5
2E9
  8
DATA
  6
CONTINUOUS
 62
     7
 10
245.3
 20
-310.7363626906549
 30
0.0
 40
10.69999999999982
 50
0.0
 51
83.69577902333685
  0
LINE
  5
2EA
  8
DATA
  6
CONTINUOUS
 62
     7
 10
241.8389619136085
 20
-302.8834085489125
 30
0.0
 11
115.9999999999997
 21
-297.0
 31
0.0
  0
ARC
  5
2EB
  8
DATA
  6
CONTINUOUS
 62
     7
 10
241.3412190055062
 20
-313.5718252697106
 30
0.0
 40
10.70000000000005
 50
355.8204301265705
 51
87.33375109391119
  0
CIRCLE
  5
2EC
  8
DATA
  6
CONTINUOUS
 62
     7
 10
4.499999999999716
 20
-488.5000000000002
 30
0.0
 40
1.0
  0
TEXT
  5
2ED
  8
DATA
 62
     7
 10
-23.28935546875028
 20
-469.628017433371
 30
0.0
 40
2.30859375
  1
70V
 41
0.7
 72
     1
 11
-21.00000000000028
 21
-468.473720558371
 31
0.0
 73
     2
  0
TEXT
  5
2EE
  8
DATA
 62
     7
 10
-1.693359375000284
 20
-469.628017433371
 30
0.0
 40
2.30859375
  1
100V
 41
0.7
 72
     1
 11
0.9999999999997158
 21
-468.473720558371
 31
0.0
 73
     2
  0
TEXT
  5
2EF
  8
DATA
 62
     7
 10
-17.08353515625029
 20
-465.1696091569099
 30
0.0
 40
2.30859375
  1
Tap Select
 41
0.7
 72
     1
 11
-10.00000000000028
 21
-464.0153122819099
 31
0.0
 73
     2
  0
POLYLINE
  5
2F0
  8
DATA
  6
CONTINUOUS
 62
     7
 66
     1
 10
0.0
 20
0.0
 30
0.0
 70
     1
  0
VERTEX
  5
3A8
  8
DATA
  6
CONTINUOUS
 62
     7
 10
-22.50000000000028
 20
-462.2653122819097
 30
0.0
  0
VERTEX
  5
3A9
  8
DATA
  6
CONTINUOUS
 62
     7
 10
2.499999999999716
 20
-462.2653122819097
 30
0.0
  0
VERTEX
  5
3AA
  8
DATA
  6
CONTINUOUS
 62
     7
 10
2.499999999999716
 20
-465.7653122819097
 30
0.0
  0
VERTEX
  5
3AB
  8
DATA
  6
CONTINUOUS
 62
     7
 10
-22.50000000000028
 20
-465.7653122819097
 30
0.0
  0
SEQEND
  5
3B3
  8
DATA
  6
CONTINUOUS
 62
     7
  0
LINE
  5
2F7
  8
DATA
  6
CONTINUOUS
 62
     7
 10
-66.9175407058454
 20
-303.7664766567477
 30
0.0
 11
-45.00000000000028
 21
-308.5461742716782
 31
0.0
  0
LINE
  5
2F8
  8
DATA
  6
CONTINUOUS
 62
     7
 10
191.9999999999998
 20
-340.5461742716782
 30
0.0
 11
113.2499999999997
 21
-340.5461742716782
 31
0.0
  0
LINE
  5
2F9
  8
DATA
  6
CONTINUOUS
 62
     7
 10
113.2499999999997
 20
-315.5461742716782
 30
0.0
 11
191.9999999999998
 21
-315.5461742716782
 31
0.0
  0
TEXT
  5
2FA
  8
DATA
 62
     7
 10
157.000000281466
 20
-321.9700023966782
 30
0.0
 40
3.84765625
  1
CONTROL HST
 41
0.7
 11
157.000000281466
 21
-320.0461742716782
 31
0.0
 73
     2
  0
TEXT
  5
2FB
  8
DATA
 62
     7
 10
135.6367578124997
 20
-320.8157055216782
 30
0.0
 40
1.5390625
  1
Model Noc.
 41
0.7
 72
     1
 11
139.9999999999997
 21
-320.0461742716782
 31
0.0
 73
     2
  0
TEXT
  5
2FC
  8
DATA
 62
     7
 10
135.5110677083331
 20
-325.8157055216782
 30
0.0
 40
1.5390625
  1
impedance:
 41
0.7
 72
     1
 11
139.9999999999997
 21
-325.0461742716782
 31
0.0
 73
     2
  0
TEXT
  5
2FD
  8
DATA
 62
     7
 10
157.1629946227864
 20
-325.8157055216782
 30
0.0
 40
1.5390625
  1
8 Ohms
 41
0.7
 72
     1
 11
159.9999998311197
 21
-325.0461742716782
 31
0.0
 73
     2
  0
TEXT
  5
2FE
  8
DATA
 62
     7
 10
138.122981770833
 20
-332.8157055216782
 30
0.0
 40
1.5390625
  1
JBLProfessional,Nortridge,CA
 41
0.7
 72
     1
 11
151.4999999999997
 21
-332.0461742716782
 31
0.0
 73
     2
  0
TEXT
  5
2FF
  8
DATA
 62
     7
 10
133.3108463541664
 20
-334.8157055216782
 30
0.0
 40
1.5390625
  1
Designed by JBL Professional in the USA
 41
0.7
 72
     1
 11
151.4999999999997
 21
-334.0461742716782
 31
0.0
 73
     2
  0
TEXT
  5
300
  8
DATA
 62
     7
 10
145.1077604166664
 20
-336.8157055216782
 30
0.0
 40
1.5390625
  1
Maide in Chiana
 41
0.7
 72
     1
 11
151.4999999999997
 21
-336.0461742716782
 31
0.0
 73
     2
  0
LINE
  5
301
  8
DATA
  6
CONTINUOUS
 62
     7
 10
-10.80284970198937
 20
-480.1094235253124
 30
0.0
 11
-7.898112192334622
 21
-485.1405764746876
 31
0.0
  0
LINE
  5
302
  8
DATA
  6
CONTINUOUS
 62
     7
 10
-12.10188780766595
 20
-480.8594235253122
 30
0.0
 11
-9.197150298011195
 21
-485.8905764746874
 31
0.0
  0
LINE
  5
303
  8
DATA
  6
CONTINUOUS
 62
     7
 10
-24.00000000000028
 20
-470.1097555910258
 30
0.0
 11
-18.00000000000028
 21
-470.1097555910258
 31
0.0
  0
LINE
  5
304
  8
DATA
  6
CONTINUOUS
 62
     7
 10
-2.000000000000284
 20
-470.1097555910258
 30
0.0
 11
3.999999999999716
 21
-470.1097555910258
 31
0.0
  0
TEXT
  5
305
  8
DATA
 62
     7
 10
-26.01656250000028
 20
-474.628017433371
 30
0.0
 40
2.30859375
  1
8Ω
 41
0.7
 72
     2
 11
-23.00000000000028
 21
-473.473720558371
 31
0.0
 73
     2
  0
TEXT
  5
306
  8
DATA
 62
     7
 10
-27.57871093750028
 20
-478.628017433371
 30
0.0
 40
2.30859375
  1
60W
 41
0.7
 72
     2
 11
-23.00000000000028
 21
-477.473720558371
 31
0.0
 73
     2
  0
TEXT
  5
307
  8
DATA
 62
     7
 10
-27.57871093750028
 20
-484.128017433371
 30
0.0
 40
2.30859375
  1
30W
 41
0.7
 72
     2
 11
-23.00000000000028
 21
-482.973720558371
 31
0.0
 73
     2
  0
TEXT
  5
308
  8
DATA
 62
     7
 10
-27.30937500000028
 20
-489.628017433371
 30
0.0
 40
2.30859375
  1
15W
 41
0.7
 72
     2
 11
-23.00000000000028
 21
-488.473720558371
 31
0.0
 73
     2
  0
TEXT
  5
309
  8
DATA
 62
     7
 10
-28.38671875000028
 20
-493.680576316629
 30
0.0
 40
2.30859375
  1
7.5W
 41
0.7
 72
     2
 11
-23.00000000000028
 21
-492.526279441629
 31
0.0
 73
     2
  0
TEXT
  5
30A
  8
DATA
 62
     7
 10
2.999999999999716
 20
-474.628017433371
 30
0.0
 40
2.30859375
  1
15W
 41
0.7
 11
2.999999999999716
 21
-473.473720558371
 31
0.0
 73
     2
  0
TEXT
  5
30B
  8
DATA
 62
     7
 10
2.999999999999716
 20
-478.628017433371
 30
0.0
 40
2.30859375
  1
30W
 41
0.7
 11
2.999999999999716
 21
-477.473720558371
 31
0.0
 73
     2
  0
TEXT
  5
30C
  8
DATA
 62
     7
 10
2.999999999999716
 20
-484.128017433371
 30
0.0
 40
2.30859375
  1
60W
 41
0.7
 11
2.999999999999716
 21
-482.973720558371
 31
0.0
 73
     2
  0
TEXT
  5
30D
  8
DATA
 62
     7
 10
2.999999999999716
 20
-493.628017433371
 30
0.0
 40
2.30859375
  1
8Ω
 41
0.7
 11
2.999999999999716
 21
-492.473720558371
 31
0.0
 73
     2
  0
CIRCLE
  5
30E
  8
DATA
  6
CONTINUOUS
 62
     7
 10
2.499999999999716
 20
-422.0
 30
0.0
 40
4.0
  0
LINE
  5
30F
  8
DATA
  6
CONTINUOUS
 62
     7
 10
0.4999999999997158
 20
-422.0
 30
0.0
 11
4.499999999999716
 21
-422.0
 31
0.0
  0
LINE
  5
310
  8
DATA
  6
CONTINUOUS
 62
     7
 10
2.499999999999716
 20
-424.0
 30
0.0
 11
2.499999999999716
 21
-420.0
 31
0.0
  0
CIRCLE
  5
311
  8
DATA
  6
CONTINUOUS
 62
     7
 10
147.4999999999997
 20
-422.0
 30
0.0
 40
4.0
  0
LINE
  5
312
  8
DATA
  6
CONTINUOUS
 62
     7
 10
145.4999999999997
 20
-422.0
 30
0.0
 11
149.4999999999997
 21
-422.0
 31
0.0
  0
LINE
  5
313
  8
DATA
  6
CONTINUOUS
 62
     7
 10
147.4999999999997
 20
-424.0
 30
0.0
 11
147.4999999999997
 21
-420.0
 31
0.0
  0
LINE
  5
314
  8
DATA
  6
CONTINUOUS
 62
     7
 10
232.296798084077
 20
-505.2540523932857
 30
0.0
 11
113.2499999999997
 21
-505.2540523932857
 31
0.0
  0
LINE
  5
315
  8
DATA
  6
CONTINUOUS
 62
     7
 10
36.74999999999972
 20
-505.2540523932857
 30
0.0
 11
-82.29679808407747
 21
-505.2540523932857
 31
0.0
  0
ARC
  5
316
  8
DATA
  6
CONTINUOUS
 62
     7
 10
191.9999999999998
 20
-337.5461742716782
 30
0.0
 40
3.0
 50
270.0
 51
0.0
  0
ARC
  5
317
  8
DATA
  6
CONTINUOUS
 62
     7
 10
191.9999999999998
 20
-318.5461742716782
 30
0.0
 40
3.0
 50
0.0
 51
90.0
  0
ARC
  5
318
  8
DATA
  6
CONTINUOUS
 62
     7
 10
450.0
 20
117.2538346080135
 30
0.0
 40
5.000000000000044
 50
130.7973204962804
 51
179.9999999999994
  0
ARC
  5
319
  8
DATA
  6
CONTINUOUS
 62
     7
 10
450.0000000000001
 20
24.24616539198649
 30
0.0
 40
5.000000000000057
 50
179.9999999999994
 51
229.2026795037182
  0
ARC
  5
31A
  8
DATA
  6
CONTINUOUS
 62
     7
 10
550.0
 20
22.30020806325544
 30
0.0
 40
5.000000000000006
 50
309.8055710922657
 51
0.0000000000003411
  0
ARC
  5
31B
  8
DATA
  6
CONTINUOUS
 62
     7
 10
550.0
 20
119.1997919367446
 30
0.0
 40
5.0
 50
359.9999999999993
 51
50.19442890773416
  0
CIRCLE
  5
31C
  8
DATA
  6
CONTINUOUS
 62
     7
 10
-580.0
 20
-76.0
 30
0.0
 40
5.0
  0
LINE
  5
31D
  8
DATA
  6
CONTINUOUS
 62
     7
 10
-583.0
 20
-76.0
 30
0.0
 11
-577.0
 21
-76.0
 31
0.0
  0
LINE
  5
31E
  8
DATA
  6
CONTINUOUS
 62
     7
 10
-580.0
 20
-79.0
 30
0.0
 11
-580.0
 21
-73.0
 31
0.0
  0
CIRCLE
  5
31F
  8
DATA
  6
CONTINUOUS
 62
     7
 10
-520.0499999999997
 20
-76.0
 30
0.0
 40
5.0
  0
LINE
  5
320
  8
DATA
  6
CONTINUOUS
 62
     7
 10
-523.0499999999997
 20
-76.0
 30
0.0
 11
-517.0499999999997
 21
-76.0
 31
0.0
  0
LINE
  5
321
  8
DATA
  6
CONTINUOUS
 62
     7
 10
-520.0499999999997
 20
-79.0
 30
0.0
 11
-520.0499999999997
 21
-73.0
 31
0.0
  0
TEXT
  5
322
  8
DATA
 62
     7
 10
474.9999999999999
 20
-1120.444315
 30
0.0
 40
19.00314670138889
  1
2-Wayフルレンジ・スピーカー
 41
0.7
 11
474.9999999999999
 21
-1101.441168298612
 31
0.0
 73
     3
  0
ENDSEC
  0
EOF
